Cash Johnny - Hurt Correct Chords & Tabs

 

Hurt Correct Chords & Tabs

Cash Johnny Chords & Tabs

Version: 1 Type: Tab 8 ratings
1 star 2 stars 3 stars 4 stars 5 stars
comments

Hurt Correct Tab

   
Hurt
By Johnny Cash
Tabbed by Jon Liao

Capo on second fret

E ------------------------------|----------------------------8--
B -------4--------1-3---------1-|-----4----1-------1-3-----1----
G --------------0-------2-------|----------------0-------2------
D -----2--------------0---------|---2------------------0--------
A ---0--------3-----------------|-0------------3----------------
E ------------------------------|-------------------------------
         I    hurt myself     today

Repeat riff until "everything"
Split to bass+classical guitars:

1st guitar- Strum (x=muted string)

E ---x---|     |---0---|
B ---3---|     |---1---|
G ---0---| x12 |---0---| x4
D ---0---|     |---2---|
A ---2---|     |---3---|
E ---3---|     |---x---|

Repeat x4

Bass guitar, follow rhythm of classical- No capo

BASS LINE

G---------------------------------|
D-------------------------0-0-0-0-| x4
A-0-0-0-0-2-2-2-2-----------------|
E-----------------3-3-3-3---------|

Classical guitar strum ends on "in the end"

Start classical picking, rest strokes, continue bass line
[ Tab from: http://www.guitartabs.cc/tabs/c/cash_johnny/hurt_correct_tab.html ]
E-10-10-10-10-10-8-8-8-8-8-8-8-8-7-7-7-7-7-7-7-7-7-5-5-5-5-5-3-5-7---
B--------------------------------------------------------------------
G--------------------------------------------------------------------
D--------------------------------------------------------------------
A--------------------------------------------------------------------
E--------------------------------------------------------------------

E-10-10-10-10-10-8-8-8-8-8-8-8-8-7-7-7-7-7-7-7-7-7-5-5-5-5-5-3-------
B---------------------------------------------------------------3--2-
G--------------------------------------------------------------------
D--------------------------------------------------------------------
A--------------------------------------------------------------------
E--------------------------------------------------------------------

Classical goes back to main riff after "make you hurt", bass line ends

Strum + bass line starts again after "still right here"

Strum ends at "In the end", replaced by picking

Electric- no capo:

E---|
B---|
G---| follow bass line
D---|
A-0-|
E---|

Picking ends at "keep myself"

Electric- major distortion:

D Am D


e-mail: liaodabomb@hotmail.com
Comments