Cash Johnny - Hurt Alternate Chorus Chords & Tabs

 

Hurt Alternate Chorus Chords & Tabs

Cash Johnny Chords & Tabs

Version: 1 Type: Tab 1 rating
1 star 2 stars 3 stars 4 stars 5 stars
comments

Hurt Alternate Chorus Tab

Hurt
----


Johnny Cash (Nine Inch Nails cover)



Alright, I guess you all know how to play the verse by now, but here it is again:

-------0-------0-------2-------0-------------------
-------1-------1-------3-------1-------------------
-------2-------0----2--2-------2-------------------
----2-------2-----0---------2----------------------
--0-------3---------------0------------------------
---------------------------------------------------

[ Tab from: http://www.guitartabs.cc/tabs/c/cash_johnny/hurt_alternate_chorus_tab.html ]
Now, I play the chorus quite a bit differently than is suggested in other tabs, because I think it's closer
to the way it's supposed to sound (even tho it's played with two quitars on the record):

--3-3--3-3--3-3--3-3-------------------------------
--3-3--3-3--3-3--3-3-------------------------------
--0----0----0----0---------------------------------
--0----2----0----2---------------------------------
--2----0----x----3---------------------------------
--3---------1--------------------------------------

This way you can play the 'whole' song with just one guitar... Figure out the timing for yourself, I'm not typing that out. ;)
Comments