Cash Johnny - Folsom Prison Blues Chords & Tabs

 

Folsom Prison Blues Chords & Tabs

Cash Johnny Chords & Tabs

Version: 1 Type: Tab 1 rating
1 star 2 stars 3 stars 4 stars 5 stars
comments

Folsom Prison Blues Tab

   
Tuning:standard

intro (pick close to bridge for that twangy sound)
e|---------------------|
B|---------------------|
G|---------------------|
D|-------2-2-2---------|
A|-3-3-3------3--------|
E|--------------3b4-1--|
[ Tab from: http://www.guitartabs.cc/tabs/c/cash_johnny/folsom_prison_blues_tab.html ]
 verse(palm muted) listen to song for rythm
e|----------------------------------------------|
B|-----------3----------------------------------|
G|-----------3-----------------5----------------|
D|--3-------3---------3--------5--------3-------|
A|3-3---------------3-3-------3-------3-3-------|
E|----------------------------------------------|
  
  solo thing
e|----8-11-8-11-8-----8-11-8-11------8-11-8-11-8-----8-11-8-11--|
B|-8h9-------------8h9-----------8h9--------------8h9-----------|
G|--------------------------------------------------------------|
D|--------------------------------------------------------------|
A|--------------------------------------------------------------|
E|--------------------------------------------------------------|

e|-8-6---6--6--6-6--6--6--10-------|
B|-----6-----6----6-----6--6-------|
G|------7-7---7-7--7-7-----7-------|
D|---------------------------------|
A|---------------------------------|
E|---------------------------------|
   pick near bridge 
e|-------------------------------|
B|-------------------------------|
G|-------------------------------|
D|-------------------------------|
A|0-1-2-3----3----3----3---------|
E|------------------------3b4-1--|



| /  slide up
| \  slide down
| h  hammer-on
| p  pull-off
| ~  vibrato
| +  harmonic| x  Mute note
if any problems,comments,problems.
my e-mail:garybrown@bak.rr.com
Comments