Cash Johnny - Folsom Blues Chords & Tabs

 

Folsom Blues Chords & Tabs

Cash Johnny Chords & Tabs

Version: 1 Type: Tab 4 ratings
1 star 2 stars 3 stars 4 stars 5 stars
comments

Folsom Blues Tab

   
Intro		guitar1 acoustic 	LISTEN FOR TIMING
E------------------------------------------------------------------------------------------
B------------------------------------------------------------------------------------------
G------------------------------------------------------------------------------------------
D------------------------------------------------------------------------------------------
A-0--2-3-4-3-----4----------4-----4----------------------------------------------------
E----------------2-----------2-----2------------------------------------------------------
Do until “I hang my head and cry”
E------------------------------------------------------------------------------------------
B------------------------------------------------------------------------------------------
G------------------------------------------------------------------------------------------
D------------------------------------------------------------------------------------------
A-------4--4----4------------------------------------------------------------------------
E------2--2---2---------------------------------------------------------------------------
	         h	    			   h
E------7---8--9--12--9----12----9-----7--8-9--12---9--12--9-----------------------
B------------------------------------------------------------------------------------------
G------------------------------------------------------------------------------------------
D------------------------------------------------------------------------------------------
A------------------------------------------------------------------------------------------
E------------------------------------------------------------------------------------------

E---------6---6------------------5---5---------------------------------------------------
B---------5---5----x2-----------4---4-----x2-------------------------------------------
G---------5---5------------5--5-5---5---------------------------------------------------
D---0--0----------------------------------------------------------------------------------
A------------------------------------------------------------------------------------------
E------------------------------------------------------------------------------------------
		A7			D7
E-------------3---3------------------2----2----------------------------------------------
B-------------2---2------------------1----1----------------------------------------------
G-------------2—2-x2-------------2----2---x2----------------------------------------
D----0---0-----------------0—0---------------------------------------------------------
A------------------------------------------------------------------------------------------
E------------------------------------------------------------------------------------------

A--0----2--3-4-4--3-----4-------------4---------4-------------------------------------
E------------------------2----------2-----------2-----------------------------------------

[ Tab from: http://www.guitartabs.cc/tabs/c/cash_johnny/folsom_blues_tab.html ]
Comments