Cary Brothers - Ride Chords & Tabs

 

Ride Chords & Tabs

Cary Brothers Chords & Tabs

Version: 1 Type: Tab 0 ratings
1 star 2 stars 3 stars 4 stars 5 stars
comments

Ride Tab

   
#----------------------------------PLEASE NOTE---------------------------------#
#This file is the author's own work and represents their interpretation of the #
#song. You may only use this file for private study, scholarship, or research. #
#------------------------------------------------------------------------------#

                               Ride - Cary Brothers                         
                           Waiting for Your Letter (2005)

Written by Cary Brothers
Transcribed by John Bradley
June 2006, Alabama

Submited by JohnEdwinBradley 

#------------------------------------------------------------------------------#

Chord Progression (Played Through Out)

Am	C/G	G	D


Main Lead                                  
e ---------------------------------------------------------------------
B ---------------------------------------------------------------------
G -14---14---14---14/16---16---16---16---16---16---16/14---14---14----- X3
D ---------------------------------------------------------------------
A ---------------------------------------------------------------------
E ---------------------------------------------------------------------

  
                             
e ---------------------------------------------------------------------
B ---------------------------------------------------------------------
G -14---14---14---14/12---12---12/11---11---11/9---9---9/7---7/9---9---
D --------------------------------------------------------------------- 
A ---------------------------------------------------------------------
E ---------------------------------------------------------------------
[ Tab from: http://www.guitartabs.cc/tabs/c/cary_brothers/ride_tab.html ]
  
Palm Mute, Quick, and light (Played Through Out)
e ---------------------------------------------------------------------
B ---------------------------------------------------------------------
G -----5---5---4---4---0-----------------------------------------------
D -------------------------2---2---0---0-------------------------------
A -0---------------------------------------5p3p0-----------------------
E ---------------------------------------------------------------------


Exit 
e ------14--------15--------15--------15--------15---15---14---12------
B -15--------15--------15--------15--------15-----------------------15-
G ---------------------------------------------------------------------
D ---------------------------------------------------------------------
A ---------------------------------------------------------------------
E ---------------------------------------------------------------------


e ------14---14---15---15--------14---14---15---15--------14---14---15-
B -15-----------------------15-----------------------15----------------
G ---------------------------------------------------------------------
D ---------------------------------------------------------------------
A ---------------------------------------------------------------------
E ---------------------------------------------------------------------

e -15---15---14---12---------------------------------------------------
B ---------------------15----------------------------------------------
G ---------------------------------------------------------------------
D ---------------------------------------------------------------------
A ---------------------------------------------------------------------
E ---------------------------------------------------------------------

Comments