Cartel - Say Anything Else Chords & Tabs

 

Say Anything Else Chords & Tabs

Cartel Chords & Tabs

Version: 1 Type: Tab 0 ratings
1 star 2 stars 3 stars 4 stars 5 stars
comments

Say Anything Else Tab

Band : Cartel
Song : Say Anything (Else)
Album: Chroma
Tabbed By: Calum (afirock74@hotmail.com)
Tuning: Half step down, drop d

x   - Palm Mute
b   - Bend
b~  - Bend Up Then Down
h   - Hammer-On Directly After Note Before

Intro:
eb|--------------------------------------------------|-0--|
Bb|--------------------------------------------------|-3--|
Gb|------------------------7-7-7-7-7-7---------------|-2--|
Db|--5-5-5-5-5--2-2-2-2-2--7-7-7-7-7-7--7-7-7--9-9-9-|-0--|
Ab|--5-5-5-5-5--2-2-2-2-2--5-5-5-5-5-5--7-7-7--9-9-9-|-0--| (repeated)
C#|--5-5-5-5-5--2-2-2-2-2---------------7-7-7--9-9-9-|-0--|

Verse:
eb|-------------------------------------------|------------------------------------------|
Bb|-------------------------------------------|------------------------------------------|
Gb|-------------------------------------------|------------------------------------------|
Db|--5-5-5-5-5-5-5-5-5-5--0-0-0-0-0-0-0-0-0-0-|-5-5-5-5-5-5-5-5-5-5--0-0-0-0-0-0-0-0-0-0-|
Ab|--5-5-5-5-5-5-5-5-5-5--0-0-0-0-0-0-0-0-0-0-|-5-5-5-5-5-5-5-5-5-5--0-0-0-0-0-0-0-0-0-0-|
C#|--5-5-5-5-5-5-5-5-5-5--0-0-0-0-0-0-0-0-0-0-|-5-5-5-5-5-5-5-5-5-5--0-0-0-0-0-0-0-0-0-0-|
     x-x-x-x-x-x-x-x-x-x--x-x-x-x-x-x-x-x-x-x

Pre Chorus:
eb|-------------------------------------------|
Bb|-------------------------------------------|
Gb|-------------------------------------------|
Db|--5-5-5-5-5-5-5-5-5-5--2-0-2-0-2-0-2-0-2-2-|
Ab|--5-5-5-5-5-5-5-5-5-5--2-0-2-0-2-0-2-0-2-2-|
C#|--5-5-5-5-5-5-5-5-5-5--2-0-2-0-2-0-2-0-2-2-|
[ Tab from: http://www.guitartabs.cc/tabs/c/cartel/say_anything_else_tab.html ]
Chorus:
eb|-------------------------------------------------------------------------|
Bb|-------------------------------------------------------------------------|
Gb|--7-7-7-7-7-7-7-7-7-7--7-7-7-7-7-7-7-7-7-7--11-9-9--4-4-4-4--11-9-9--7-7-|
Db|--7-7-7-7-7-7-7-7-7-7--5-5-5-5-5-5-5-5-5-5--9--7-7--2-2-2-2--9--7-7--5-5-|
Ab|--5-5-5-5-5-5-5-5-5-5--5-5-5-5-5-5-5-5-5-5--9--7-7--2-2-2-2--9--7-7--5-5-|
C#|-----------------------5-5-5-5-5-5-5-5-5-5--9--7-7--2-2-2-2--9--7-7--5-5-|

Riff On 2nd Verse:
eb|---------------|
Bb|---------------|
Gb|---------------|
Db|--7/9----------|
Ab|-----7/9-5-5-5-|
C#|---------------|

Bridge Guitar 1:
eb|---------------------------------------------------------------------------------|
Bb|---------------------------------------------------------------------------------|
Gb|-9-9-9-9-9-9-9-9-9---------------------------------------------------------------|
Db|-9-9-9-9-9-9-9-9-9--5-5-5-5-5-5-5-5-5-5--7-7-7-7-7-7-7-7-7-7--2-2-2-2-2-2-2-2-2--|
Ab|-7-7-7-7-7-7-7-7-7--5-5-5-5-5-5-5-5-5-5--7-7-7-7-7-7-7-7-7-7--2-2-2-2-2-2-2-2-2--|
C#|--------------------5-5-5-5-5-5-5-5-5-5--7-7-7-7-7-7-7-7-7-7--2-2-2-2-2-2-2-2-2--|

eb|---------------------------------------------------------------------------------|
Bb|---------------------------------------------------------------------------------|
Gb|-9-9-9-9-9-9-9-9-9---------------------------------------------------------------|
Db|-9-9-9-9-9-9-9-9-9--5-5-5-5-5-5-5-5-5-5--7-7-7-7-7-7-7-7-7-7--2-2-4-4-5-5-7-7-7--|
Ab|-7-7-7-7-7-7-7-7-7--5-5-5-5-5-5-5-5-5-5--7-7-7-7-7-7-7-7-7-7--2-2-4-4-5-5-7-7-7--|
C#|--------------------5-5-5-5-5-5-5-5-5-5--7-7-7-7-7-7-7-7-7-7--2-2-4-4-5-5-7-7-7--|

Bridge Guitar 2:
eb|-------------------------------------------------------------------|
Bb|-------------------------------------------------------------------|
Gb|--9-9-9-7-9-9-9-7-9-9-9-7-9-9-9-7----------------------------------|
Db|----------------------------------9-9-9-7-9-9-9-7-9-9-9-7-9-9-9-7--|
Ab|-------------------------------------------------------------------|
C#|-------------------------------------------------------------------|

Post Bridge:
eb|-----------|
Bb|-----------|
Gb|-----------|
Db|--9--7--5--|
Ab|--9--7--5--|
C#|--9--7--5--|

Outro Riff: (wierd effect)
eb|-----10-12-10----|
Bb|--10---------10--|
Gb|-----------------|
Db|-----------------|
Ab|-----------------|
C#|-----------------|
Comments