Cartel - Honestly Chords & Tabs

 

Honestly Chords & Tabs

Cartel Chords & Tabs

Version: 4 Type: Tab

Honestly Tab

   
----------------------------------------------------------------------------
			     HONESTLY - Cartel
----------------------------------------------------------------------------
Tabbed by: Blake B.
Email:

Tuning: C#,G#,C#,F#,A#,D#

   Intro (Guitar I)
D#|----------------------11-11-11-11-11--| <=repeat until
A#|-8-7-------7----------11-11-11-11-11--|   verse starts
F#|-----9-7-9---9-7----------------------|
C#|--------------------------------------|
G#|--------------------------------------|
C#|--------------------------------------|

   Intro (Guitar II)
D#|---------------------------------|
A#|---------------------------------|
F#|---------------------------------|
C#|-55-77--77-77--55-77--7-7-77777--|
G#|-55-77--55-44--55-77--5-5-44444--| (2x)
C#|-55-77---------55-77-------------|

   Verse 1 (Guitar II)
D#|---------------------------------|
A#|---------------------------------|
F#|---------------------------------|
C#|-55-77--77-77--55-77--7-7-77777--|
G#|-55-77--55-44--55-77--5-5-44444--| (4x)
C#|-55-77---------55-77-------------|

   Verse 1 (Guitar I)
D#|-11-11-11-11-11---| <=play this after
A#|-11-11-11-11-11---|   guitar II has played
F#|------------------|   verse riff twice and repeat
C#|------------------|   until pre-chorus
G#|------------------|
C#|------------------|

   Pre-Chrous
D#|-------------------------------------------------------------------------|
A#|-------------------------------------------------------------------------|
F#|-------------------------------------------------------------------------|
C#|-99-77-55~---99-77-7777777-----------------------------------------------|
G#|-99-77-55~---99-77-5555555-----------------------------------------------|
C#|-99-77-55~---99-77-------------------------------------------------------|
                        .....<=palm mute and release slowly

   Chorus
D#|-------------------------------------------------------------------------|
A#|-------------------------------------------------------------------------|
F#|-------------------------------------------------------------------------|
C#|-000000000-99-555555555-77-99999-77777-55555-777777----------------------|
G#|-000000000-99-555555555-77-99999-77777-55555-777777----------------------|
C#|-000000000-99-555555555-77-99999-77777-55555-777777----------------------|

   Post Chorus (Guitar I)
D#|-11-11-11-11-11--| <=repeat until
A#|-11-11-11-11-11--|  verse 2 starts
F#|-----------------|
C#|-----------------|
G#|-----------------|
C#|-----------------|

   Post Chorus (Guitar II)
D#|--------------------------------------------------------------------------|
A#|--------------------------------------------------------------------------|
F#|--------------------------------------------------------------------------|
C#|-77-77--55-77--7-7-77777-55-77--77-77--55-77--7-7-77777-------------------|
G#|-55-44--55-77--5-5-44444-55-77--55-44--55-77--5-5-44444-------------------|
C#|--------55-77------------55-77---------55-77------------------------------|

   Verse 2 (Guitar II)
D#|---------------------------------|
A#|---------------------------------|
F#|---------------------------------|
C#|-55-77--77-77--55-77--7-7-77777--|
G#|-55-77--55-44--55-77--5-5-44444--| (4x)
C#|-55-77---------55-77-------------|
[ Tab from: http://www.guitartabs.cc/tabs/c/cartel/honestly_tab_ver_4.html ]
   Verse 2 (Guitar I)
D#|----------------------5---------------------------------------|
A#|---5-7-8-7-5------5-7---7-5------5-7-8-7-5---8-7-------7------|
F#|-7-----------7--7-----------7--7-----------7-----9-7-9---9-7--|
C#|--------------------------------------------------------------|
G#|--------------------------------------------------------------|
C#|--------------------------------------------------------------|

D#|-11-11-11-11-11--| <=repeat until
A#|-11-11-11-11-11--|   prechorus
F#|-----------------|
C#|-----------------|
G#|-----------------|
C#|-----------------|

   Pre-Chorus
D#|-------------------------------------------------------------------------|
A#|-------------------------------------------------------------------------|
F#|-------------------------------------------------------------------------|
C#|-99-77-55~---99-77-7777777-----------------------------------------------|
G#|-99-77-55~---99-77-5555555-----------------------------------------------|
C#|-99-77-55~---99-77-------------------------------------------------------|
                        .....<=palm mute and release slowly

   Chorus (Guitar II)
D#|-----------------------------------------------------|
A#|-----------------------------------------------------|
F#|-----------------------------------------------------|
C#|-000000000-99-555555555-77-99999-77777-55555-777777--|
G#|-000000000-99-555555555-77-99999-77777-55555-777777--| (2x)
C#|-000000000-99-555555555-77-99999-77777-55555-777777--|

   Chorus (Guitar I)
D#|-------7~-----------7~------------7~------------7~--------|
A#|---5-7---7-5----5-7----7-5----5-7----7-5----5-7----7-5----|
F#|-7-----------7~------------7~------------7~------------7--|
C#|----------------------------------------------------------|
F#|----------------------------------------------------------|
C#|----------------------------------------------------------|

D#|-------------------------------|
A#|-777777-555555-----------------| <=not sure this is right
F#|---------------777777-9999999--|   but it's played right
C#|-------------------------------|   before it goes into the
F#|-------------------------------|   breakdown
C#|-------------------------------|

   Breakdown (Guitar II)
D#|------------------|
A#|------------------|
F#|------------------|
C#|-4~-0~-2~-555555--|
F#|-2~-0~-2~-555555--| (10x)
C#|----0~-2~-555555--|

   Breakdown (Guitar I)
D#|------------------------------|
A#|-5^7---10^12---13^15---17^19--| <=with a wah pedal
F#|------------------------------|
C#|------------------------------|
F#|------------------------------|
C#|------------------------------|

   Chorus
D#|-----------------------------------------------------|
A#|-----------------------------------------------------|
F#|-----------------------------------------------------|
C#|-000000000-99-555555555-77-99999-77777-55555-777777--|
G#|-000000000-99-555555555-77-99999-77777-55555-777777--| (2x)
C#|-000000000-99-555555555-77-99999-77777-55555-777777--|

   Chorus (Guitar II)
D#|---------------------------------|
A#|---------------------------------|
C#|-55-77--77-77--55-77--7-7-77777--|
G#|-55-77--55-44--55-77--5-5-44444--|
C#|-55-77---------55-77-------------|


   Chorus (Guitar I)
D#|-11-11-11-11-11--|
A#|-11-11-11-11-11--| <=repeat until outro
F#|-----------------|
C#|-----------------|
F#|-----------------|
C#|-----------------|

   Outro
D#|----------------------5--------------------|
A#|---5-7-8-7-5------5-7---7-5------5-7-82----|
F#|-7-----------7--7-----------7--7-----------|
C#|-------------------------------------------|
F#|-------------------------------------------|
C#|-------------------------------------------|

|   slide down
| ~  hold note
| x  Mute note
============================================================================