Cars - Magic Chords & Tabs

 

Magic Chords & Tabs

Cars Chords & Tabs

Version: 1 Type: Tab 0 ratings
1 star 2 stars 3 stars 4 stars 5 stars
comments

Magic Tab

Magic
The Cars
Anthology
Tabbed by Jesse G(jpeg_cl06@hotmail.com)

Start out by tremolo bends on any string

Gtr. 1 Intro Riff

----------------|
----------------|
----------------|
-2------7-----9-|
-0------5-----7-|
----------------|

Gtr 2. Intro Riff

-5-5-5-5-10-10-10-10-|-12--16-16-16-17-17-16
---------------------|----------------------
---------------------|----------------------
---------------------|----------------------
---------------------|----------------------
---------------------|----------------------

Guitar 1. Verse/Chorus

Well, its the same as the intro except after a couple repeats you play this
[ Tab from: http://www.guitartabs.cc/tabs/c/cars/magic_tab.html ]
------------------------
------------------------
------------------------
------------------------
------------------------
---0-0-2-0--------------


Then the gtr. 2 part is repeated

Gtr. 1 Break(I got a hold on you, got a hold on you...)
----------0------------------0-----------------0--------
-----0--------0--------0---------0---------0-------0----
---2---2----2---2----2----2----2---2----2----2---2---2--
-4-----------------0------------------2-----------------
--------------------------------------------------------
--------------------------------------------------------

---------0----------------
-----0--------------------
---2---2------------------
-2------------------------
--------------------------
--------------------------
Comments