Cars - Magic Chords & Tabs

 

Magic Chords & Tabs

Cars Chords & Tabs

Version: 1 Type: Bass Tab 0 ratings
1 star 2 stars 3 stars 4 stars 5 stars
comments

Magic Bass Tab

   
"MAGIC"
BY THE CARS
TABBED BY FRANKMAN

                          VERSE

G------------------
D------------------
A-0--5--7---------- keep repeating
E----------0-0-2-0-


                         CHANGE
[ Tab from: http://www.guitartabs.cc/tabs/c/cars/magic_btab.html ]
G-------------------------------------------------------------------------
D-------------------------------------------------------------------------
A-9-9-9-9-9-9-9-9-5-5-5-5-5-5-5-5-7-7-7-7-7-7-7-7-9-9-9-9-9-9-9-9-9-9-9-9-
E-------------------------------------------------------------------------

G---------------------------------------------------------
D---------------------------------------------------------
A-9-9-9-9-5-5-5-5-5-5-5-5-7-7-7-7-7-7-7-7-7-7-7-7-7-7-7-7-
E---------------------------------------------------------

Comments