Cars - Here In My Car Chords & Tabs

 

Here In My Car Chords & Tabs

Cars Chords & Tabs

Version: 1 Type: Tab 0 ratings
1 star 2 stars 3 stars 4 stars 5 stars
comments

Here In My Car Tab

-------------------------------------------------------------------------------
			     here in my car- the cars
-------------------------------------------------------------------------------
Tabbed by: Chris
Email:voodoochild1787@yahoo.com

this song is weird it sounds like alien music or something

Intro/main riff:
e|-------------------------------------------------------------------|
B|-------------------------------------------------------------------|
G|-------------------------------------------------------------------|
D|-------------------------------------------------------------------|
A|-------------------------------------------------------------------|
E|--10--9--0--5-5-0--10--9--0--5-5-0--10--9--0--5-5-0--10--9--0--5-5-|
[ Tab from: http://www.guitartabs.cc/tabs/c/cars/here_in_my_car_tab.html ]
e|-------------------------------------------------------------------|
B|-------------------------------------------------------------------|
G|-------------------------------------------------------------------|
D|-------------------------------------------------------------------|
A|--------2--------------2-------------------------------------------|
E|---0--3---3-------0--3---3-----------------------------------------|

I think this part is keyboard but i play it like this...

e|--------------------------------------------------------------------------|
B|--------------------------------------------------------------------------|
G|--------------------------------------------------------------------------|
D|-----10------------------10-----12--11------10--------------------------8-|
A|--7------7--7--10--9--7------7-----------7------7--7--10--9--7--7--5h6----|
E|--------------------------------------------------------------------------|

|------------------------------------------------------------------------|
B|-----------------------------------------------------------------------|
G|-----------------------------------------------------------------------|
D|-----10------------------10-----12--11------10---------------------9---|
A|--7------7--7--10--9--7------7-----------7------7--7--10--9--7-8-9-----|
E|-----------------------------------------------------------------------|
Comments