Carpenters - For All We Know Chords & Tabs

 

For All We Know Chords & Tabs

Carpenters Chords & Tabs

Version: 2 Type: Chords 1 rating
1 star 2 stars 3 stars 4 stars 5 stars
comments

For All We Know Chords

   
For All We Know
Carpenters

Intro:          |-----3-----2-----0-----X-----|
	        |-----0-----0-----0-----2-----|
	        |-----0-----0-----0-----0-----|
	        |-----0-----0-----0-----0-----|
	        |-----2-----2-----2-----2-----|
	        |-----3-----3-----3-----3-----|  (2X)

    
Broken Chords:
    
  G/F#          |-----3-----|
	        |-----3-----|
	        |-----2-----|
	        |-----0-----|
	        |-----0-----|
	        |-----2-----|

  A/C#          |-----x-----|
	        |-----2-----|
	        |-----2-----|
	        |-----x-----|
	        |-----4-----|
	        |-----x-----|


[ Tab from: http://www.guitartabs.cc/tabs/c/carpenters/for_all_we_know_crd_ver_2.html ]
G-G/F#-Em-D               A/C#         C   Cm        G      G-G/F#      
Love...      look at the two of us, strangers in many ways,
Em              D          A/C#  A
   we've got a lifetime to share, 
          D    G           C  D                G-G/F#-Em 
so much to say   and as we go   from day to day.
D               A/C#            C  Cm          G     G-G/F# 
I'll feel you close to me, but time alone will tell.
Em               D          A/C#  A            D       
   Let's take a lifetime to say,  'I knew you well,'
G          C                Bm  Em          Am        D         (Intro)
  for only time will tell us so   and love may grow, for all we know.

 
G-G/F#-Em-D               A/C#         C   Cm        G      G-G/F#       
Love...       look at the two of us, strangers in many ways.
Em              D          A/C#  A            D
   Let's take a lifetime to say, 'I knew you well,'
G          C                Bm  Em          Am        D         (Intro)
  for only time will tell us so   and love may grow, for all we know.



by creaseTeen
Comments