Carpenters - Close To You Chords & Tabs

 

Close To You Chords & Tabs

Carpenters Chords & Tabs

Version: 2 Type: Tab 0 ratings
1 star 2 stars 3 stars 4 stars 5 stars
comments

Close To You Tab

CLOSE TO YOU
-the carpenters

[ Tab from: http://www.guitartabs.cc/tabs/c/carpenters/close_to_you_tab_ver_2.html ]
-=:thanks for visiting my tab, this is my first ever, i hope it may satisfy and help
you. it's easy to play, and quite identical to the original version - i think. i'm sorry
i only got the intro. i shall update this tab really soon (if i can commit it to memory)
and add the lyrics along with the complete tab. for your comments, suggestions,
clarifications, blah blah blah, please add me on friendster --> leane_mj@yahoo.com and
send them to me. if you don't have an account, please just feel free to email me on the
same address:=-

>-thanks to rosana for helping me with this-<


*Capo on second fret

     C (with pinkie on third fret)
E|---------|---------|---0-----------|
B|-3---3---|-1---1---|-3---3---1---1-|
G|-------0-|-------0-|-------0-------|
D|---2-----|---2-----|-----------2---|
A|-3-------|-3-------|-3-------3-----|
E|---------|---------|---------------|

     C (with pinkie on third fret)
E|---------|---------|---|
B|-3---3---|-1---1---|-3-|
G|-------0-|-------0-|---|
D|---2-----|---2-----|---|
A|-3-------|-3-------|-3-|
E|---------|---------|---|


.:thanks&enjoy:.
Comments