Carpe Diem - We Believe Chords & Tabs

 

We Believe Chords & Tabs

Carpe Diem Chords & Tabs

Version: 1 Type: Tab 2 ratings
1 star 2 stars 3 stars 4 stars 5 stars
comments

We Believe Tab

CARPE DIEM - We Believe

This is a really awesome song, very emotional.
Bass uses same core notes, will tab bassline soon... enjoy.. and thank you. :D

Intro (Rhythym) Every Time You feel lonely.....Repeat Twice

E|-----3---------3--------------------------------------------------------------
B|-----3---------3--------------------------------------------------------------
G|-----0----0----0-----0--------------------------------------------------------
D|-----0----0----2-----2--------------------------------------------------------
A|-----2---2-----3---3---3------------------------------------------------------
E|---3---------3----------------------------------------------------------------

Basic Chord Progression: (Mixture, you have to listen to the song :P)

E|---3-----3-------3----3-------------------------------------------------------
B|---3-----3-------3----3-------------------------------------------------------
G|---0-----0-------0----2-------------------------------------------------------
D|---0-----2---2---0------------------------------------------------------------
A|---2-----3---2---2------------------------------------------------------------
E|---3-------------3------------------------------------------------------------





[ Tab from: http://www.guitartabs.cc/tabs/c/carpe_diem/we_believe_tab.html ]
Intro(Lead) Repeat x4
E|-------------10-10-10-10---------------10-10-10-10---------------------------
B|-----------------------------------------------------------------------------
G|--12-12-12-12--------------12-12-12-12---------------------------------------
D|-----------------------------------------------------------------------------
A|-----------------------------------------------------------------------------
E|-----------------------------------------------------------------------------

Lead The Plays The Same As Rhythym for whole song, apart from solo....

SOLO

E|------------------10--10--10--10----------------10--10--10--10---------------
B|------------------10--10--10--10----------------10--10--10--10---------------
G|---12--12--12--12----------------12--12--12--12------------------------------
D|---12--12--12--12----------------12--12--12--12------------------------------
A|-----------------------------------------------------------------------------
E|-----------------------------------------------------------------------------

E|------------------10--10--10--10----------------10--10--10--10---------------
B|------------------10--10--10--10----------------10--10--10--10---------------
G|---12--12--12--12------------------------------------------------------------
D|---12--12--12--12----------------12--12--12--12--12--12--12--12--------------
A|---------------------------------12--12--12--12--12--12--12--12--------------
E|---------------------------------10--10--10--10--10--10--10--10--------------


One of New Zealand's Greatest Young Bands, Carpe Diem


Comments