Carpark North - Transparent Glasslike Chords & Tabs

 

Transparent Glasslike Chords & Tabs

Carpark North Chords & Tabs

Version: 2 Type: Tab 0 ratings
1 star 2 stars 3 stars 4 stars 5 stars
comments

Transparent Glasslike Tab

   
Heya all you fellas out there1 Here is the 100% correct tab of this song. It took
me a lot of time to finish, so I hope you'll enjoy! The tuning is half step down
(EbAbDbGbBbEb)
=)

Intro:
E----------------------------------------------------------------------------
B--------------------3-------------------3-5--3-5--3-5--3-5--6-5--3-5---3---3
G--5--4-5--4-5--4-5----5--4-5--4-5--4-5-------------------------------5---4--
D----------------------------------------------------------------------------
A----------------------------------------------------------------------------
E----------------------------------------------------------------------------

E----------------------3-------------------3---------------------------------
B--5-6--5-6--5-6--5-6----6--5-6--5-6--5-6---------------------3--------------
G--------------------------------------------5--4-5--4-5--4-5---5--4-5--4-5--
D----------------------------------------------------------------------------
A----------------------------------------------------------------------------
E----------------------------------------------------------------------------

Verse 1:
Am               C
Stop the clocks, stop the cars.
Am        Em           Bb             Am         
Tell your dad, at the plant, to come home.

Verse 2:
Am            C
Do not smile, do not sing.
Am          Em       Bb     Am
Close your eyes, and go, to bed

Chorus(strummed many times):
  |F    F|F    F|C    C|Em    Em|Dm    Dm|G    G|
E---5------3----------------------------------------------------------------
B-------------6--5------3---------5----5--4---------------------------------
G---------------------------------------------------------------------------
D---------------------------------------------------------------------------
A---------------------------------------------------------------------------
E---------------------------------------------------------------------------

Intro again

Verse 3:
Am               C
Stop your heart, stop your mind
Am         Em   Gm            Dm
Tell your girl, not, to come home

Chorus
[ Tab from: http://www.guitartabs.cc/tabs/c/carpark_north/transparent_glasslike_tab_ver_2.html ]
Outro:
E----------------------------------------------------------------------------
B--------------------3-------------------3-5--3-5--3-5--3-5--6-5--3-5---3---3
G--5--4-5--4-5--4-5----5--4-5--4-5--4-5-------------------------------5---4--
D----------------------------------------------------------------------------
A----------------------------------------------------------------------------
E----------------------------------------------------------------------------

E----------------------3------------------3-5--3-5--3-5--3-5--8--3-5--8-7-5-7
B--5-6--5-6--5-6--5-6----6--5-6--5-6--5-6------------------------------------
G----------------------------------------------------------------------------
D----------------------------------------------------------------------------
A----------------------------------------------------------------------------
E----------------------------------------------------------------------------

E---------------------------10--------------------------10-12--10-12--10-12--
B--13--12-13--12-13--12-13------13--12-13--12-13--12-13----------------------
G----------------------------------------------------------------------------
D----------------------------------------------------------------------------
A----------------------------------------------------------------------------
E----------------------------------------------------------------------------

E--10-12--13-12--10-12-----10---10---12-13--12-13--12-13--12-13--15-13-12-13-
B-----------------------13----12---------------------------------------------
G----------------------------------------------------------------------------
D----------------------------------------------------------------------------
A----------------------------------------------------------------------------
E----------------------------------------------------------------------------

E--12-13--12-13--15--12--10-12-----10----10----------------------------------
B-------------------------------13----13-----12-13--12-13--10-12--10-12----10
G-----------------------------------------------------------------------12---
D----------------------------------------------------------------------------
A----------------------------------------------------------------------------
E----------------------------------------------------------------------------

That's it..... if there's anything you want to say to me (comments, corrections,
of stuff like that), then feel free to mail me! nikolaj.thorborg@skolekom.dk
Comments