Carp - Crap Chords & Tabs

 

Crap Chords & Tabs

Carp Chords & Tabs

Version: 1 Type: Tab 0 ratings
1 star 2 stars 3 stars 4 stars 5 stars
comments

Crap Tab

|---------------|---------------|-----------------
|-1-------1-----|-0-------0-----|-3-------3-------
|-----0-------0-|-----0-------0-|-----0-------0---
|---2-------2---|---2-------2---|---2-------2-----
|-3-----3-------|-3-----3-------|-3-----3---------
|---------------|---------------|-----------------
                                                  

                                                  
|---------------|---------------|-----------------
|-1-------1-----|-0-------0-----|-3-------3-------
|-----0-------0-|-----2-------2-|-----2-------2---
|---2-------2---|---2-------2---|---2-------2-----
|-3-----3-------|-0-----0-------|-0-----0---------
|---------------|---------------|-----------------
                                                  
[ Tab from: http://www.guitartabs.cc/tabs/c/carp/crap_tab.html ]
                                                  
|---------------|---------------|-----------------
|-1-------1-----|-0-------0-----|-3-------3-------
|-----2-------2-|-----2-------2-|-----0-------0---
|---2-------2---|---2-------2---|---2-------2-----
|-0-----0-------|-0-----0-------|-3-----3---------
|---------------|---------------|-----------------
                                                  

                                                  
|---------------|---------------|-----------------
|-1-------1-----|-0-------0-----|-3-------3-------
|-----0-------2-|-----0-------0-|-----0-------0---
|---2-------2---|---2-------2---|---2-------2-----
|-3-----3-------|-3-----3-------|-3-----3---------
|---------------|---------------|-----------------
                                                  

                                                  
|---------------|---------------|-----------------
|-1-------1-----|-0-------0-----|-3-------3-------
|-----2-------2-|-----2-------2-|-----2-------2---
|---2-------2---|---2-------2---|---2-------2-----
|-0-----0-------|-0-----0-------|-0-----0---------
|---------------|---------------|-----------------
                                                  

                                                  
|---------------|---------------------------------
|-1-------1-----|---------------------------------
|-----2-------2-|---------------------------------
|---2-------2---|---------------------------------
|-3-----3-------|---------------------------------
|---------------|---------------------------------
Comments