Carolina Liar - Im Not Over Chords & Tabs

 

Carolina Liar Chords & Tabs

Version: 3 Type: Tab 0 ratings
1 star 2 stars 3 stars 4 stars 5 stars
comments

Im Not Over Tab

   
okay so the first tab i send in wasnt that good so here's the real thing. im sure this
100% correct, but i could be wrong! :) if u have any q's or comments email me at
dennyden4@yahoo.com

im not over by: carolina liar
 intro:

----------------------------------------------------------------------------|
----------------------------------------------------------------------------|
----------------------------------------------------------------------------|
----------------------------------------------------------------------------|
-----4-4-4-4-4-4-4-4-4-4-4-4-4-4-4-4-4-2-2-2-2-2-2-6-6-6-6-6-6--4-4-4-4-4-4-|
-----4-4-4-4-4-4-4-4-4-4-4-4-4-4-4-4-4-2-2-2-2-2-2-6-6-6-6-6-6--4-4-4-4-4-4-|
what a waste of time if i crossed my mind but i never missed a beat cant explain the who
what i was trying to believe.

repeat intro
                 what would you do? what would you do? do you know? i once had a grip on
it feels better to let go.
[ Tab from: http://www.guitartabs.cc/tabs/c/carolina_liar/im_not_over_tab_ver_3.html ]
e|-17-17-17-17-17-17-17-17--16-16-16-16-16-16-16-16-14-14-14-14-14-14-14-|
-------------------------------------------------------------------------|
-------------------------------------------------------------------------|
-------------------------------------------------------------------------|
-------------------------------------------------------------------------|
-------------------------------------------------------------------------|

e|-16-16-16-16-16-16-16-16/-17-17-17-17-17-17-17-17-16-16-16-16-16-16-16-16-|
----------------------------------------------------------------------------|
----------------------------------------------------------------------------|
----------------------------------------------------------------------------|
----------------------------------------------------------------------------|
----------------------------------------------------------------------------|

e-----------------------------------------|
--17/-17*(8times)--16(*times)-14(8 times--|
------------------------------------------|
------------------------------------------|
------------------------------------------|
------------------------------------------|

im not over, im not over you just yet cannot hide it your'e not that easy to forget im 
over.

e|------------------------------------------|
------13-----13-----13-----13---15---13-----|
----------15-----15-----15--------------15--|
Comments