Carolina Liar - Im Not Over Chords & Tabs

 

Carolina Liar Chords & Tabs

Version: 2 Type: Tab 0 ratings
1 star 2 stars 3 stars 4 stars 5 stars
comments

Im Not Over Tab

   
so there was only one other tab and it wasn't working for me so i figured out variations 
the chords. this is my first tab so sorry if mistakes.

Chords:  C#5   E5  B5  F#5

Double bar means:
||-repeat this-||

Intro:

|---------------|---------------|
|---------------|---------------|
|-6-6--6-6-6--6-|-6-6--6-6-6--6-|
|-6-6--6-6-6--6-|-6-6--6-6-6--6-|
|-4-4--4-4-4--4-|-4-4--4-4-4--4-|
|---------------|---------------|

Verse:

||---------------|---------------|---------------|---------------------||
||---------------|---------------|---------------|---------------------||
||-6-6--6-6-6--6-|-9-9--9-9-9--9-|---------------|-11-11--11-11-11--11-||
||-6-6--6-6-6--6-|-9-9--9-9-9--9-|-9-9--9-9-9--9-|-11-11--11-11-11--11-||
||-4-4--4-4-4--4-|-7-7--7-7-7--7-|-9-9--9-9-9--9-|-9--9---9--9--9---9--||
||---------------|---------------|-7-7--7-7-7--7-|---------------------||

||-12-12-12-12-12-12-12-12-||-11-11-11-11-11-11-11-11-|
||-------------------------||-------------------------|
||-------------------------||-------------------------|
||-------------------------||-------------------------|
||-------------------------||-------------------------|
||-------------------------||-------------------------|

|-------------------------|
|-11-11-11-11-11-11-11-11-|
|-------------------------|
|-------------------------|
|-------------------------|
|-------------------------|

||-12-12-12-12-12-12-12-12-||-11-11-11-11-11-11-11-11-|
||-------------------------||-------------------------|
||-------------------------||-------------------------|
||-------------------------||-------------------------|
||-------------------------||-------------------------|
||-------------------------||-------------------------|

Chorus:

Lead Guitar:
|------------------------------|-----------------------|
|--14----12------14----12------|-14---12-14-16-14-12---|
|-----------(11)----------(11)-|-----------------------|
|------------------------------|-----------------------|
|------------------------------|-----------------------|
|------------------------------|-----------------------|
Background Guitar:
|-----------------|-----------------|
|-----------------|-----------------|
|-6-6-6-6-6-6-6-6-|-9-9-9-9-9-9-9-9-|
|-6-6-6-6-6-6-6-6-|-9-9-9-9-9-9-9-9-|
|-4-4-4-4-4-4-4-4-|-7-7-7-7-7-7-7-7-|
|-----------------|-----------------|
[ Tab from: http://www.guitartabs.cc/tabs/c/carolina_liar/im_not_over_tab_ver_2.html ]
|-----------------|-------------------------|
|-----------------|-------------------------|
|-----------------|-11-11-11-11-11-11-11-11-|
|-9-9-9-9-9-9-9-9-|-11-11-11-11-11-11-11-11-|
|-9-9-9-9-9-9-9-9-|-9--9--9--9--9--9--9--9--|
|-7-7-7-7-7-7-7-7-|-------------------------|

Verse: see above
Chorus: see above

Bridge:

|---------------------------------|------------------------|
|---------------------------------|------------------------|
|---------------------------------|-9--9--9--9--9--9--9--9-|
|-11--11--11--11--11--11--11--11--|------------------------|
|---------------------------------|-7--7--7--7--7--7--7--7-|
|--9---9---9---9---9---9---9---9--|------------------------|

|-------------------------|-------------------------|
|-------------------------|-------------------------|
|-------------------------|-------------------------|
|-9--9--9--9--9--9--9--9--|--8--8--8--8--8--8--8--8-|
|-------------------------|-------------------------|
|-7--7--7--7--7--7--7--7--|--6--6--6--6--6--6--6--6-|

||---------------------------------|------------------------|
||---------------------------------|------------------------|
||---------------------------------|-9--9--9--9--9--9--9--9-|
||-11--11--11--11--11--11--11--11--|------------------------|
||---------------------------------|-7--7--7--7--7--7--7--7-|
||--9---9---9---9---9---9---9---9--|------------------------|

|-------------------------|--------------------------------||
|-------------------------|--------------------------------||
|-------------------------|-11--11--11--11--11--11--11--11-||
|-9--9--9--9--9--9--9--9--|--------------------------------||
|-------------------------|--9---9---9---9---9---9---9---9-||
|-7--7--7--7--7--7--7--7--|--------------------------------||

Out-Chorus: (2x as long as 2nd Chorus)

It's the same as the other choruses, except for the last 8 measures

And this:
|-----------------------------|-----------------------|
|-----------------------------|-----------------------|
|-----------------------------|-----------------------|
|-11-----9------11-----9------|-11----9-11-13-11--9---|
|------------9-------------9--|-----------------------|
|-----------------------------|-----------------------|

|---------------------------|-------------------------|
|---------------------------|-------------------------|
|---------------------------|-------------------------|
|-11----9------11----9------|-11-----9-11-13----------|
|-----------9------------9--|-------------------------|
|---------------------------|-------------------------|
Comments