Carnal Grief - Mythomania Chords & Tabs

 

Mythomania Chords & Tabs

Carnal Grief Chords & Tabs

Version: 1 Type: Tab 0 ratings
1 star 2 stars 3 stars 4 stars 5 stars
comments

Mythomania Tab

#-----------------------------PLEASE NOTE-------------------------------------#
#This OLGA file is the author's own work and represents their interpretation  #
#of the song. You may only use this file for private study, scholarship, or   #
#research. Remember to view this file in Courier, or some other monospaced    #
#font. See http://www.olga.net/faq/ for more information.                     #
#-----------------------------------------------------------------------------#

From: "Johan Lindgren" 
Subject: c/carnal_grief/mythomania.tab
Date: Wed, 23 Sep 1998 01:37:10 PDT

                        Mythomania 
                  Performed By Carnal Grief 
                 Words/Music: Johan Lindgren 
              Tab Transcribed By Johan Lindgren

Intro: 
|---------------------------------| 
|---------------------------------| 
|---------------------------------| 
|-------4/3-----------------------| 
|-4/5---2/1---4/5-----------------| 
|-2/3-0-----0-2/3-0-000-0-000-000-| 

Vers: 
|-----------------------------------------------------------------| 
|-----------------------------------------------------------------| 
|-----------------------------------------------------------------| 
|-------4/3-----------------------------4/3-----------4-----------| 
|-4/5---2/1---4/5-2---------------4/5---2/1---4/5-----6-----------| 
|-2/3-0-----0-2/3-0---------------2/3-0-----0-2/3-----------------| 

|-----------------------------------------------------------------| 
|-----------------------------------------------------------------| 
|-----------------------------------------------------------------| 
|-------4/3-----------------------------4/3-----------------------| 
|-4/5---2/1---4/5-3---------------4/5---2/1---4/5-----------------| 
|-2/3-0-----0-2/3-1---------------2/3-0-----0-2/3-0-000-0-000-000-| 
(/ \ / \ / \ / \ / \ / \ / \ / \ / \ / \ / \ / \ / \ / \ / \ / \ /) 
|-----------------------------------------------------------------| 
|-----------------------------------------------------------------| 
|-----------------------------------------------------------------| 
|-------4/3-------7---------------------4/3-----------------------| 
|-4/5---2/1---4/5-8---------------4/5---2/1---4/5-----------------| 
|-2/3-0-----0-2/3-----------------2/3-0-----0-2/3-0-000-0-000-000-| 

Chorus: 
|-----------------------------------------------------------------| 
|-----------------------------------------------------------------| 
|-----------------------------------------------------------------| 
|-------------------------------------------------4-----3-----5---| 
|-2---------------7-----7-----6-7-3---------------2-----1-----3---| 
|-0-----------------0-0---0-0-----1-------------------------------| 
(/ \ / \ / \ / \ / \ / \ / \ / \ / \ / \ / \ / \ / \ / \ / \ / \ /) 
|-----------------------------------------------------------------| 
|-----------------------------------------------------------------| 
|-----------------------------------------------------------------| 
|-----------------5-----5-----4-5-3-----3-----2-3-4-----3-----5---| 
|-2-----------------2-2---3-3-------3-3---3-3-----2-----1-----3---| 
|-0---------------------------------------------------------------| 
[ Tab from: http://www.guitartabs.cc/tabs/c/carnal_grief/mythomania_tab.html ]
Stick Part 1: 
|-----------------------------------------------------------------| 
|-----------------------------------------------------------------| 
|-----------------------------------------------------------------| 
|-----------------------------------------------------------------| 
|-5-----------4---2---------------5-----------4---7---------------| 
|-3-----------2---0---------------3-----------2---5---------------| 

Stick Part 2: 
|-----------------------------------------------------------------| 
|-----------------------------------------------------------------| 
|---------------------------5-------------------------------------| 
|---------------------4---4---4-----------------------9-----9-----| 
|---5-6---5-6---4---2---2-------2---5-6---5-6---4---7-----7---7---| 
|-3-----3-----2---0---------------3-----3-----2---5-----5-------5-| 

Solo: 
|-------------------------12-12-12-12---101210-8108-787-575-454-1-| 
|-----------------6---5-------------------------------------------| 
|-----------------------------------------------------------------| 
|-------------6-7-------------------------------------------------| 
|-------5-7-8-----------------------------------------------------| 
|-5-7-8-----------------------------------------------------------| 

|/5-----------8---7---------8/10--8---7---------------------------| 
|---------------------------------------10--8---7-----------------| 
|---------------------------------------------------9-8-----------| 
|-----------------------------------------------------------------| 
|-----------------------------------------------------------------| 
|-----------------------------------------------------------------| 

|-121514151215141511141214111412141215141512151415171514--1415----| 
|-------------------------------------------------------17----16--| 
|-----------------------------------------------------------------| 
|-----------------------------------------------------------------| 
|-----------------------------------------------------------------| 
|-----------------------------------------------------------------| 

|-----------------------------------------------------------------| 
|-----------------------------------------------------------------| 
|-161314--13--------------------------------------------------1314| 
|-------15--14151214--12--------------------121415------121415----| 
|-------------------15--1415121411--11121415------121415----------| 
|---------------------------------13------------------------------| 

Ending: 
|-----------------------------------------------------------------| 
|-----------------------------------------------------------------| 
|-----------------------------------------------------------------| 
|-----------------4-----3-----5-------------------4-----3-----5---| 
|-----------------2-----1-----3-------------------2-----1-----3---| 
|-0-000-0-000-000-----------------0-000-0-000-000-----------------| 

|-----------------------------------------------------------------| 
|-----------------------------------------------------------------| 
|-----------------------------------------------------------------| 
|-----------------4-----3-----5-----------------------------------| 
|-----------------2-----1-----3-------------------2---------------| 
|-0-000-0-000-000-----------------0-000-0-000-000-0---------------| 



How To Play It: 

Intro : 1 Time 
Vers : 4 Times 
Chorus : 2 Times 
Vers : 4 Times 
Chorus : 2 Times 
Stick Part 1 : 2 Times 
Stick Part 1 + 2 : 6 Times 
Solo (Vers : 4 Times) 
Chorus : 2 Times 
Ending : 1 Time 
Comments