Carnal Grief - Embraced By The Light Chords & Tabs

 

Embraced By The Light Chords & Tabs

Carnal Grief Chords & Tabs

Version: 1 Type: Tab 0 ratings
1 star 2 stars 3 stars 4 stars 5 stars
comments

Embraced By The Light Tab

#-----------------------------PLEASE NOTE-------------------------------------#
#This OLGA file is the author's own work and represents their interpretation  #
#of the song. You may only use this file for private study, scholarship, or   #
#research. Remember to view this file in Courier, or other monospaced font.   #
#See http://www.olga.net/faq/ for more information.                           #
#-----------------------------------------------------------------------------#

From: "Johan Lindgren" 
Subject: c/carnal_grief/embraced_by_the_light.tab
Date: Wed, 23 Sep 1998 01:42:07 PDT



                   Embraced By The Light 
                 Performed By Carnal Grief 
               Transcribed by Johan Lindgren
              Music: Johan Lindgren/Johan Olsen 

Intro: 
|-----------------------------------------------------------------| 
|-----------------------------------------------------------------| 
|---------0-----------------0-------------0-----------------0-----| 
|-----4-------4---------4-----4-------4-------4---------4-----4---| 
|---2-----------2-----2-------------3-----------3-----3-----------| 
|-0-----------------0-------------0-----------------0-------------| 

|-----------------------------------------------------------------| 
|-----------------------------------------------------------------| 
|---------0-----------------0-------------0-----------------0-----| 
|-----4-------4---------4-----4-------4-------4---------4-----4---| 
|---2-----------2-----2-------------3-----------5-----5-----------| 
|-0-----------------0-------------0-----------------0-------------| 

Melodi 1: 
|---------7-------------------------------7-------5-------3---2---| 
|-5-------------------------------5-------------------------------| 
|-----------------------------------------------------------------| 
|-----------------------------------------------------------------| 
|-----------------------------------------------------------------| 
|-----------------------------------------------------------------| 

|---------------------------------7---5---3---2---3---232---------| 
|-3-------5-----------------------------------------------5---3---| 
|-----------------------------------------------------------------| 
|-----------------------------------------------------------------| 
|-----------------------------------------------------------------| 
|-----------------------------------------------------------------| 

Part 2: 
|-----------------------------------------------------------------| 
|-----------------------------------------------------------------| 
|-------0-------0-------0-------0-------0-------0-------0-------0-| 
|-----5-------4-------0-------02------5-------4-------7-------02--| 
|---7-------5-------3-------2-------7-------5-------3-------2-----| 
|-0-------0-------0-------0-------0-------0-------0-------0-------| 

Melodi On Part 2: 
|-----------------------------------------------------------------| 
|-5-------7-------8---------------5-------7-------8-------10--8---| 
|-----------------------------------------------------------------| 
|-----------------------------------------------------------------| 
|-----------------------------------------------------------------| 
|-----------------------------------------------------------------| 

Part 3: 
|-----------------------------------------------------------------| 
|-----------------------------------------------------------------| 
|---------0---------------0---------------0---------------0-------| 
|-----0-----0---0-----0-----0---0-----0-----0---0-----0-----0---0-| 
|---4---4-----4-----4---4-----4-----4---4-----4-----4---4-----4---| 
|-2---------------2---------------0---------------0---------------| 

|-----------------------------------------------------------------| 
|-----------------------------------------------------------------| 
|---------0---------------0---------------0-----------------------| 
|-----0-----0---0-----0-----0---0-----0-----0---0-----0-----0-----| 
|---4---4-----4-----4---4-----4-----4---4-----4-----4-----4-----4-| 
|-2---------------2---------------3---------------0-----2-----3---| 

Melodi on Part 3: 
|-------------------------------------------------5---------------| 
|-7-------------------------------5-----------------------5-------| 
|-----------------------------------------------------------------| 
|-----------------------------------------------------------------| 
|-----------------------------------------------------------------| 
|-----------------------------------------------------------------| 

|-----------------------------------------------------------------| 
|-7-------------------------------8---------------5-----7-----8---| 
|-----------------------------------------------------------------| 
|-----------------------------------------------------------------| 
|-----------------------------------------------------------------| 
|-----------------------------------------------------------------| 
[ Tab from: http://www.guitartabs.cc/tabs/c/carnal_grief/embraced_by_the_light_tab.html ]
Part 4: 
|-----------------------------------------------------------------| 
|-----------------------------------------------------------------| 
|-----9-----9---------7-----7---------10----10--------9-----9-----| 
|---10----10----10--9-----9-----9---12----12----12--10----10----10| 
|-0-----0-----0---0-----0-----0---0-----0-----0---0-----0-----0---| 
|-----------------------------------------------------------------| 

Part 5: 
|-----------------------------------------------------------------| 
|-----------------------------------------------------------------| 
|-----9-----9---------7-----7---------5-----5---------4-----4-----| 
|---10----10----10--9-----9-----9---7-----7-----7---5-----5-----5-| 
|-0-----0-----0---0-----0-----0---0-----0-----0---0-----0-----0---| 
|-----------------------------------------------------------------| 

Melodi on Part 4+5: 
|---------------------------------5-----3-------------------------| 
|-5---------------3---------------------------6---5--------3-(12)-| 
|-----------------------------------------------------------------| 
|-----------------------------------------------------------------| 
|-----------------------------------------------------------------| 
|-----------------------------------------------------------------| 

Stick: 
|-----------------------------------------------------------------| 
|-----------------------8-----------------------------------------| 
|-----9-----9---------9---9-----------7-----7---------7-----7-----| 
|---9-----9-----9---9-------9---9---7-----7-----7---7-----7-----7-| 
|-7-----7-----7---7-----------7---5-----5-----5---5-----5-----5---| 
|-----------------------------------------------------------------| 

|-----------------------------------------------------------------| 
|-----------------------------------------------------------------| 
|-----5-----5---------5-----5---------4-----4---------4-----5-----| 
|---5-----5-----5---5-----5-----5---5-----5-----5---5-----5-----7-| 
|-3-----3-----3---3-----3-----3---2-----2-----2---2-----3-----5---| 
|-----------------------------------------------------------------| 

Melodi 1 on Stick: (Natural Harmonic) 
|-12--------------------------------------------------------------| 
|-------------5-------------------7---------------------------12--| 
|-----------------5-----------5---------7-------------------------| 
|---------------------------------------------7-------------------| 
|-----------------------------------------------------------------| 
|-----------------------------------------------------------------| 

|-12------------------------------------------7-------------------| 
|-------------5-------------------7---------------------------12--| 
|-----------------5-----------5---------7-------------------------| 
|-----------------------------------------------------------------| 
|-----------------------------------------------------------------| 
|-----------------------------------------------------------------| 

Melodi 2 on Stick: (Tapping) 
|-12--8---5---12--8---5---12--8---12--8---5---12--8---5---12--8---| 
|-----------------------------------------------------------------| 
|-----------------------------------------------------------------| 
|-----------------------------------------------------------------| 
|-----------------------------------------------------------------| 
|-----------------------------------------------------------------| 

|-15--10--7---15--10--7---15--10--15--10--7---15--10--7---15--10--| 
|-----------------------------------------------------------------| 
|-----------------------------------------------------------------| 
|-----------------------------------------------------------------| 
|-----------------------------------------------------------------| 
|-----------------------------------------------------------------| 

|-13--8---5---13--8---5---13--8---13--8---5---13--8---5---13--8---| 
|-----------------------------------------------------------------| 
|-----------------------------------------------------------------| 
|-----------------------------------------------------------------| 
|-----------------------------------------------------------------| 
|-----------------------------------------------------------------| 

|-12--8---5---12--8---5---12--8---10--7---3---10--7---3---10--7---| 
|-----------------------------------------------------------------| 
|-----------------------------------------------------------------| 
|-----------------------------------------------------------------| 
|-----------------------------------------------------------------| 
|-----------------------------------------------------------------| 

Ending: 
|-----------------------------------------------------------------| 
|-----------------------------------------------------------------| 
|-5---------------------------------------------------------------| 
|-7---------------------------------------------------------------| 
|-7---------------------------------------------------------------| 
|-5---------------------------------------------------------------| 


How To Play: 

Intro: 1 Time 
Intro + Melodi : 2 Times 
Part 2 : 2 Times 
Part 3 : 2 Times 
Part 4 : 3 Times 
Part 5 : 1 Time 
Part 2 : 2 Times 
Part 3 : 2 Times 
Part 4 : 3 Times 
Part 5 : 1 Time 
Stick + Melodi 1 : 2 Times 
Stick + Melodi 2 : 2 Times 
Part 2 : 2 Times 
Part 3 : 2 Times 
Part 4 : 3 Times 
Part 5 : 1 Time 
Ending : 1 Time 
Comments