Carmichael Hoagy - Georgia On My Mind Chords & Tabs

 

Georgia On My Mind Chords & Tabs

Carmichael Hoagy Chords & Tabs

Version: 1 Type: Tab 3 ratings
1 star 2 stars 3 stars 4 stars 5 stars
comments

Georgia On My Mind Tab

Georgia On My Mind,
Hoagy Carmichael

Tabbed by James Gallichio



Note: The rhythm is NEARLY there with this tab...I made it by notating the song into GP4 so 
if you import this tab into a tab --> midi program, you should be able to hear it in all its glory.
Enjoy!

                                                                         
E||--------7------------------------|------------4/-5/4-----------------|
B||--8/-9---------------------------|-------------------7--------4------|
G||-------------1----2----3----4----|--6------6------------6--5---------|
D||--8/-9------------2----3----4----|--4------4---------------4---------|
A||---------------------------------|--6------6-------------------------|
E||-----0-------0----2----3----4----|-------------------4---------------|


                                                                        
-------------------------9--7-----|--0-------0-------------------------|
--------------------7h9--7-----7--|-------------0-------5------8-6-5---|
--9------8------7--------7-----7--|-----6-------6-------5------5-----6-|
--9------8------7--------------7--|-----5----------------------5-------|
-------------------------7--------|--0---------------7--5--------------|
--9------8------7-----------------|------------------------------------|


                                           
--------------7--9--11----------9---------|
-----5--7/-9--------12----------11--------|
--4-----------------11----------10-----5--|
-----------9---------------------------4--|
--------------------11--------------------|
--4---------------------11--10------3-----|


                                                                             
--------------------9-----------------|--4------------5-----5-4-------------|
--2-----5--------------7b-5-----5--7--|--6------5/-6------------------5--3--|
--3--6--------------------------6-----|--5------4--5--------4-4-------4-----|
--------------------------------5-----|---------3--4--------3-3-------3-----|
-----------------------------0--------|------------------4------------------|
--2--------4--5--6--7-----------------|--4----------------------4-3---------|


                                                                              
-------------------0--------0--0------||--------------------9-------------0--|
-------2-----5-----0-----0--0---------||--2-----5----------------7b-5--------|
--3-------3--------6-----6--5-----5--*||--3--6-------------------------6-----|
--2-------2-----------7--------------*||-------------------------------------|
--------------------------------------||-------------------------------------|
--2-------2/----5--7--------7---------||--2--------4--5--6--7----------------|


                                                                                
--------0-----0--------0--------0-----|-------------4h-2h-0--------------4-----|
-----3-----3-----3--2-----2--1-----1--|------0---------------7--------------4--|
-----4-----4-----4--3-----3--2-----2--|--0h1----2/4-------------6--4--5--------|
--------------------------------------|----------------------------------------|
--------------------------------------|----------------------6-----------------|
--0-----------------------------------|--0----------------------------4--------|


                                                                      
----------------------------4-----|----------------------------------|
--5---------2--5--7------------5--|------------2--5------------------|
--4------4--------6------5--------|--4------4--------4------3--------|
---------2---------------4--------|--2------2--------2------2--------|
--4------4--------6---------------|--4------4------------------2--3--|
-------------------------4--------|------------------2------2--------|


                                                                          
-------------------------------4-----|-----7-------4--7--6---------------|
-------2-----5--6--7-----------------|-------------------5/--------4-----|
----------4--------6-----------------|----------4--------6/--------3-----|
----------2--------------------6-----|----------4--------4/--------2-----|
--4-------4--------6--6--5--4-----5--|--4-----------------------------3--|
-------------------------------------|--------------------------2--------|


                                      
----------------------------------4--|
-------2-----5--6--7-----------------|
----------4-----------6--4--5--------|
----------2-----------------------4--|
--4-------4--------6-----------------|
-------------------------------4-----|


                                              
--7-------7/9--------11----------------------|
--------5---------7/---------11--14----------|
-----4---------9---------13--------------12--|
-------------------------------------11------|
--4------------------13----------------------|
------------7--------------------11----------|


                                            
-------------------------------------------|
--12--12--------12------12----------9------|
--11--11----11------11--11------10-----10--|
------------9-----------9-------9----------|
--11---------------------------------------|
------------------------9-------9----------|


                                                                        
-------------------------------------|-----7--9------------------------|
--10-------------------7b-7--5-------|--9------------------------------|
--9-------------------------------6--|-------------1----2----3----4----|
--7-----------7/-8/-9----------------|--9---------------2----3----4----|
--9----------------------------------|---------------------------------|
------4----5-----6--7----------------|--0----------0----2----3----4----|


                                                                         
-------4-----5--4-------------------|-------------------9--7------------|
-------------------7----------7-----|-------------------------7b-7--5---|
--6-------6-----------6----5-----5--|--9------8------7----------------6-|
--4-------4-------------------------|--9------8------7------------------|
--6-------6-------------------------|-----------------------------------|
-------------------4----------------|--9------8------7------------------|

[ Tab from: http://www.guitartabs.cc/tabs/c/carmichael_hoagy/georgia_on_my_mind_tab.html ]
                                        
--0-------0----------------------------|
-------------0-------7-8-7-5-----------|
-------6--------5-------------7--5-----|
-------6--------5-------------------7--|
---------------------------------------|
--6-------------5----------------------|


                                                 
------------------------11---------------9------|
--0---------------12-14-12--12-----------11-----|
---------9--11/13-------11--11-----------10-----|
------------------------------------------------|
------------------------11----------------------|
--0-----------------------------11-10-9------3--|


                                                                             
--------------------9-------------0--|--------0-----0--------0--------0-----|
--------5----------------7b-5--------|-----3-----3-----3--2-----2--1-----1--|
-----6-------------------------6-----|-----4-----4-----4--3-----3--2-----2--|
-----------6--7--8-------------------|-----------2--------------------------|
-------------------------------------|--------------------------------------|
--2--------4--5--6-------------------|--0-----------------------------------|


                                         
-------------4--------------0--3--2--0--|
------0-----------------0h2-------------|
--0h1----2/4------------2------3--2--0--|
----------------------------------------|
------------------0--2------------------|
--0-------------------------------------|


                                                                             
---------------------------0-----4--0--|-------4-----5--4--5----------4-----|
--3--3--3--3-----2------0--------------|--7-------7-----------6----6-----4--|
--4--4--4--4-----2--0/1----------------|--6-------6-----------5----5--------|
------------------------------4--------|----------------------4----4--------|
---------------------------------------|--6-------6-------------------------|
--0-----------0-----0------------------|-------------------4----------------|


                                                                              
---------------------------2-5-9--7-----|--0---------------------------------|
--7--5--5h4-5--------2--3------7-----7--|------------5--7--8--5--7-----5-----|
--4---------4--------1--2------7-----7--|---------6--------6--------6--------|
-------------------------------------7--|---------5--------5--------5--------|
--4---------4--4--3--1--2------7--------|--0---------------------------------|
----------------------------------------|------------------6--------------6/-|


                                            
--------------7--9--11----------12---------|
-----5--7/-9--------12----------12---------|
-----4-----8--------11----------11---------|
-----4-----9--------------------10---------|
--------------------11--------------11--9--|
--4---------------------11--10-------------|


                                                
---------9/-16--12--10-------------------------|
-----10-----------------11h10h8----------------|
-----9--------------------------9--7-----------|
-----9--------------------------------9--8--7--|
--9--------------------------------------------|
-----------------------------------------------|


                                                                             
-------------------------5-----4-----|--------------------------------------|
--------------6----------5-----------|--------5--------------7b-7--5-----5--|
--------------5----------4-----4-----|--3--6--------------------------6-----|
--6-----------4----------3--3--------|--2-----------------------------------|
-----------------5-------------------|--------------------------------------|
-----6--5--4--------3-------------3--|--2--------4--5--6--7-----------------|


                                                  
--10---------------------------------------------|
--12--------11h10h8---10---8---------------------|
--------------------9----9---9-------------------|
-------------------------------11-9--------------|
------------------------------------10-9-0-9-4---|
--0----------------------------------------------|


                                                                         
---------4--5---------7----4--------|--------------------2--5--9--7-----|
----------------------5-------7--6--|--5------4----2--3--------7-----7--|
---------6--6---------5-------------|--4------3-------2--------7-----7--|
---------4--4-----------------------|--------------------------------7--|
--6---------------------------------|--4------3-------2--------7--------|
---------------6-5-4----------------|-----------------------------------|


                                       
--0-----0-----0-----------------------|
--------------------5--7b-7--5--------|
-----6-----6-----6--5-----------5-----|
-----5-----5--------------------------|
--------------------5-----------------|
--0--------------------------------5--|


                                           
--------------7--9--11----------9---------|
-----5--7/-9--------12----------9------5--|
-----4--------------11----------10-----4--|
-----4-----9---------------------------4--|
--------------------11--------------------|
--4---------------------11--10------3-----|


                                                                             
--------------------9-------------0--|--------0-----0--------0--------0-----|
--2-----5----------------7--5--------|-----3-----3-----3--2-----2--1-----1--|
--3--6-------------------------6-----|-----4-----4-----4--3-----3--2-----2--|
-------------------------------------|--------------------------------------|
-------------------------------------|--------------------------------------|
--2--------4--5--6--7----------------|--0-----------------------------------|


                                                                 
----------------------------4----|--7----12--------------------||
------0----------------5---------|-----------------------------||
--0h1--------1----4--------------|-----------------------------||
---------------------------------|-----------------------------||
---------------------------------|-----------------------------||
--0----------0-------------------|-------0---------------------||


Comments