Carlton Vanessa - White Houses Chords & Tabs

 

White Houses Chords & Tabs

Carlton Vanessa Chords & Tabs

Version: 1 Type: Tab 0 ratings
1 star 2 stars 3 stars 4 stars 5 stars
comments

White Houses Tab

Vanessa Carlton
"White Houses"
Harmonium
Tabbed by Ryan Gottfried
5 December 2004

This is how I play White Houses on an acoustic guitar.

Intro
----------------------
----------------------
----------------------
----------------------
3-----3-----3-----3---
----------------------

Verse 1:
Verse Part A
-----------------------------------------------------------
1-----1----------------------------------------------------
------------0-----0----------------------------------------
------------------------2-----2-----0-----0----------------
---3-----3-----3-----3-----3-----3-----3-----3-------------
-----------------------------------------------------------

-----------------------------------------------------------
1-----1----------------------------------------------------
------------0-----0----------------------------------------
------------------------2-----2-----0-----0----------------
---3-----3-----3-----3-----3-----3-----3-----3-------------
-----------------------------------------------------------

-----------------------------------------------------------
1-----1----------------------------------------------------
------------0-----0----------------------------------------
------------------------2-----2-----0-----0----------------
---2-----2-----2-----2-----2-----2-----2-----2-------------
-----------------------------------------------------------

-----------------------------------------------------------
1-----1----------------------------------------------------
------------0-----0----------------------------------------
------------------------2-----2-----0-----0----------------
---2-----2-----2-----2-----2-----2-----2-----2-------------
-----------------------------------------------------------

[ Tab from: http://www.guitartabs.cc/tabs/c/carlton_vanessa/white_houses_tab.html ]
Verse Part B
-----------------------------------------------------------
-----------------------------------------------------------
9--9--9--9-------------------------------------------------
9--9--9--9--10--10--10--10--10--9--9--9--9--10--10--10--10-
7--7--7--7--10--10--10--10--10--9--9--9--9--10--10--10--10-
------------8---8---8---8---8---7--7--7--7--8---8---8---8--

-----------------------------------------------------------
-----------------------------------------------------------
9--9--9--9-------------------------------------------------
9--9--9--9--10--10--10--10--10--9--9--9--9--10--10--10--10-
7--7--7--7--10--10--10--10--10--9--9--9--9--10--10--10--10-
------------8---8---8---8---8---7--7--7--7--8---8---8---8--

Verse Part C
-------------------------------------------------------
-------------------------------------------------------
------------------------------9-9-9-9-9-9-7-7-7-7-7-7--
10-10-10-10-10-10-9-9-9-9-9-9-9-9-9-9-9-9-7-7-7-7-7-7--
10-10-10-10-10-10-9-9-9-9-9-9-7-7-7-7-7-7-5-5-5-5-5-5--
8--8--8--8--8--8--7-7-7-7-7-7--------------------------

2nd Verse:
Verse Part A
Verse Part B
Verse Part C

Chorus (Play 3 times)

1-------0---3---
1-------1---3---
2-------2---0---
3-------2---0---
3-------0---2---
1-------x---3---

Repeat Intro

3rd Verse
Verse Part A
Verse Part B 
Verse Part C

Chorus (Play 6 times)

Bridge (Play 4 times) Fingerpick these chords

1---0---0---3---
1---1---1---3---
2---0---2---0---
3---2---2---0---
3---3---0---2---
1---x---x---3---

Verse Part A [Instrumental]

4th Verse
0---------------0---------------0---------------0---------------
1---------------1---------------1---------------1---------------
0---------------0---------------0---------------0---------------
2---------------2---------------2---------------2---------------
3---------------3---------------3---------------3---------------
x---------------x---------------x---------------x---------------

Chorus (Play 12 times)
Comments