Carlos Santana - You Are My Kind Chords & Tabs

 

You Are My Kind Chords & Tabs

Carlos Santana Chords & Tabs

Version: 1 Type: Tab 0 ratings
1 star 2 stars 3 stars 4 stars 5 stars
comments

You Are My Kind Tab

This tab is pretty crap cause i didnt write it i got it off some punk i know.
So dont rate it unless ya think its good

Here it be:

INTRO

E|------------------------|-------------------------|
B|------------------------|-------------------------|
G|---9--7--9--7--9--79\--|--7-7--5--7--5--7--5--2-5|
D|------------------------|-------------------------|
A|------------------------|-------------------------|
E|------------------------|-------------------------|


E|------------------------|--------7-8-7-5~-----5--8--8--10--|
B|------------------8-8---|---5--8-----------8---------------|
G|---7--5--7--5--7-------|----------------------------------|
D|------------------------|----------------------------------|
A|------------------------|----------------------------------|
E|------------------------|----------------------------------|

[ Tab from: http://www.guitartabs.cc/tabs/c/carlos_santana/you_are_my_kind_tab.html ]
E|--12-10--12-10--12-10--12~-|--8--10-8--10-8--10-8---5--8-|
B|---------------------------|-----------------------------|
G|---------------------------|-----------------------------|
D|---------------------------|-----------------------------|
A|---------------------------|-----------------------------|
E|---------------------------|-----------------------------|

                                          Im not sure on this part
                                                  /                 \
E|--10-8--10-8--10---15-12-15-|--17--17--17--17----15-13-11-10-------|
B|----------------------------|--15--15--15--15----------------12-13-|
G|----------------------------|--------------------------------------|
D|----------------------------|--------------------------------------|
A|----------------------------|--------------------------------------|
E|----------------------------|--------------------------------------|
Comments