Carlos Santana - Why Dont You And I Chords & Tabs

 

Why Dont You And I Chords & Tabs

Carlos Santana Chords & Tabs

Version: 2 Type: Tab 0 ratings
1 star 2 stars 3 stars 4 stars 5 stars
comments

Why Dont You And I Tab

I tried putting this on before, but it didnt get put on. Hope you like it

------------------------------------------------
------------------------------------------------
---7-5--5-3--3-2-2-2-5p3p2-h3p2p0--0-2-3--7-12--
------------------------------------------------
------------------------------------------------
------------------------------------------------
[ Tab from: http://www.guitartabs.cc/tabs/c/carlos_santana/why_dont_you_and_i_tab_ver_2.html ]
------------------------------------------------
-------------13----13--15b16r15-15-13-15-18-16--
-12/14/15-15----15------------------------------
------------------------------------------------
------------------------------------------------
------------------------------------------------

------------------------------------------------
-15-13-11-13-h15p13h15--------------------------
------------------------------------------------
------------------------------------------------
------------------------------------------------
------------------------------------------------

h - hammer on
p - pull off
Comments