Carlos Santana - Why Dont You And I Chords & Tabs

 

Why Dont You And I Chords & Tabs

Carlos Santana Chords & Tabs

Version: 1 Type: Tab 0 ratings
1 star 2 stars 3 stars 4 stars 5 stars
comments

Why Dont You And I Tab

Artist: Carlos Santana feat. Chad Kroeger
Song: Why Don't You and I
Album: Shaman
Transcribed by: Steven Williams (steven_w96@hotmail.com)

h - hammer on
p - pull off
b - bend string up
r - release bend
/ - slide up
\ - slide down


E-----------------------------------------------------------
B-----------------------------------------------------------
G-7--5---5h7-3---3-2---2-3-2-0-3p2p0---0-0h3---10/12-12-----
D-----------------------------------------------------------
A-----------------------------------------------------------
E-----------------------------------------------------------
[ Tab from: http://www.guitartabs.cc/tabs/c/carlos_santana/why_dont_you_and_i_tab.html ]
E-----------------------------------------------------------
B------------------------------------15-16-15---------------
G-12-14---14-15---15-17---17-19-17--------------------------
D-----------------------------------------------------------
A-----------------------------------------------------------
E-----------------------------------------------------------

E-----------------------------------------------------------
B-15-16-15-18-16-15-13-15-13-15-16-15-15b16r15--------------
G-----------------------------------------------------------
D-----------------------------------------------------------
A-----------------------------------------------------------
E-----------------------------------------------------------

Thats all I have for now i will try and finish the song.
This is my first tab so please feel free to make corrections.
Comments