Carlos Santana - Victory Is Won Chords & Tabs

 

Victory Is Won Chords & Tabs

Carlos Santana Chords & Tabs

Version: 2 Type: Tab 0 ratings
1 star 2 stars 3 stars 4 stars 5 stars
comments

Victory Is Won Tab

e ----33--55--5-3---------33--55--5-3---------------------------33--55--5-3---
b 55--------------3-55--55------------3-55--5-1-33--3---11--55--------------3-  
g ----------------------------------------------------2-----------------------  
D ----------------------------------------------------------------------------
A ----------------------------------------------------------------------------
E ----------------------------------------------------------------------------

e --------33--55--5-3-----
b 55--55--------------3-55
g ------------------------ And so on
D ------------------------
A ------------------------
E ------------------------
[ Tab from: http://www.guitartabs.cc/tabs/c/carlos_santana/victory_is_won_tab_ver_2.html ]
Comments