Carlos Santana - Supernatural Chords & Tabs

 

Supernatural Chords & Tabs

Carlos Santana Chords & Tabs

Version: 1 Type: Tab 0 ratings
1 star 2 stars 3 stars 4 stars 5 stars
comments

Supernatural Tab

   
Song: Yaleo 
Artist: Santana  
Album:Supernatural 
Transcribed by jordanlockert@yahoo.com 

Tablature Explanation: 
h=hammer-on 
p=pull-off 
/=slide up or indicates rapid picking 
\=slide down 
b=bend 1 semitone 
^=bend 2 semitones 
^^=bend 4 semitones (used once) 
br, ^r=bend &release 
Jam key= E minor 

There's a few seconds missing from the introduction because my tape got  
dubbed wrong, but just use the notes shown to figure it out. its just a  
bit missing. 


Intro 
|-----------------------------10----------------10-------10-12p10h12-----| 
|-----------------------10h12----10-------10h12----10-12-----------------| 
|------------------------------------------------------------------------| 
|------------------------------------------------------------------------| 
|------------------------------------------------------------------------| 
|------------------------------------------------------------------------| 



...en Paris 
|-------------| 
|-------------| 
|------7h9----| 
|-7h9---------| 
|-------------| 
|-------------| 


                                                                               
..de mi 
|---------------| 
|-----8-7-------| 
|---9-----7-9---| 
|-9-------------| 
|---------------| 
|---------------| 


                                                                               
Yaleo 
|-----------------7--------------| 
|---------------8---8---10-8-----| 
|-----------7-9-------9------9---| 
|-------7-9----------------------| 
|-7--10--------------------------| 
|--------------------------------| 


                                                                               
...el isc 
|---------------| 
|-10^-10-8------| 
|----------7-7--| 
|---------------| 
|---------------| 
|---------------| 


                                                                               
...partiendo pan 
|--------------------------| 
|---------8-10^-10^--8h10--| 
|-----7-9------------------| 
|-7h9----------------------| 
|--------------------------| 
|--------------------------| 


                                                                               
...dame ya 
|-------10------| 
|-10h12----10---| 
|---------------| 
|---------------| 
|---------------| 
|---------------| 


                                                                               
Yaleo 
|-7-10-7-10-7-10-7-10-7-10-7-10-7\-----| 
|--h--p-h--p-h--p-h--p-h--p-h--p-------| 
|--------------------------------------| 
|--------------------------------------| 
|--------------------------------------| 
|--------------------------------------| 


                                                                               
Yaleo, Yaleo 
|---------------------------------------------------------------------------- 
|-----------------------------10^-10p8--------------------------------------- 
|-12wah12wah12wah12wah12wah-----------9----12wah12wah12wah12wah12wah--------- 
|---------------------------------------------------------------------------- 
|--************************-----------------***********************---------- 
|---------------------------------------------------------------------------- 
*I stop putting this filler with the wah pedal in and just write the licks now  
                                    
                                      


--------------------------------------------15^---r-12///-15p12--------------- 
-15^----15p12----------------------------------------------------------------- 
-------------14^r12--14p12--------------------------------------14^-14p12----- 
-------------------14-----14---------------------------------------------14--- 
------------------------------------------------------------------------------ 
------------------------------------------------------------------------------ 
                                                                               


------------15p12------------| 
--15^//15^//-----15^//-------| 
-----------------------------| 
-----------------------------| 
-----------------------------| 
-----------------------------| 
                                                                               


...wa yo 
|---------------------------------------------------------------------------- 
|------------12--------------------------10^--8h10--8h10p8------------------- 
|--------------14p12--14p12-------------------------------9------------------ 
|-------------------14-----14------------------------------------------------ 
|---------------------------------------------------------------------------- 
|---------------------------------------------------------------------------- 
                                                                               


--12-12--12-12-----------------------------------------------------| 
--12-12--12-12------------------15^--15p12-------------------------| 
--12-12--12-12----------------------------14^r12--14p12------------| 
------------------------------------------------14-----14-----12---| 
---------------------------------------------------------12h14-----| 
-------------------------------------------------------------------| 

                                                                               

|------------------------------------| 
|------------------------------------| 
|---------------------7h9p7h9p7h9p7--| 
|-----------------7h9----------------| 
|----------7---10--------------------| 
|-7---10-----------------------------| 
this is during the quiet part                                                   
                            


Yaleo Yaleo 
|---------------------------------------------------------------------------- 
|---------------------------------------------------------------------------- 
|-12wah12wah12wah12wah12wah-----14^r12--12----------------------------------- 
|-------------------------------------14--14--------------------------------- 
|---------------------------------------------------------------------------- 
|---------------------------------------------------------------------------- 
                                                                               


-------------------------------------------- 
-------15^----15p12------------------------- 
-------------------14^r12--14p12------------ 
-------------------------14-----14---------- 
-------------------------------------------- 
-------------------------------------------- 
                                                                               


-15^^-r-12h15p12-12-12-12-12-12-12-12-12-12-15p12-12------12------------------ 
-----------------------------------------------------15^----15p12------------- 
-----------------------------------------------------------------14^r12\------ 
------------------------------------------------------------------------------ 
------------------------------------------------------------------------------ 
------------------------------------------------------------------------------ 


                                                                               
...wa yo 
|-------------------------------------------------9b--9----7----------------- 
|-------------------------------------------------------10------------------- 
|----------------14^-14p12--14p12-------------------------------------------- 
|-------------------------14-----14------------------------------------------ 
|---------------------------------------------------------------------------- 
|---------------------------------------------------------------------------- 
                                                                               


------------------------------------------------------------------------------ 
-------12------------------------15^////-------------------------------------- 
---------14p12--14p12--------------------12-12wah----------------------------- 
--------------14-----14------------------------------------------------------- 
------------------------------------------------------------------------------ 
------------------------------------------------------------------------------ 
                                                                               
Ive got about a third of the piano solo worked out, ill post it later. 

guitar solo 
|---------------------------------------------------------------------------- 
|-12-----------------------------------------15-12h15p12--------------------- 
|----------------12-----------------------14--------------------------------- 
|-------------------14-12-14-12--------15------------------------------------ 
|---------------------------------------------------------------------------- 
|---------------------------------------------------------------------------- 
                                                                               


------------------------------------------------------------------------------ 
-13-12-------------------------------12----12--------13-12-------------------- 
-------12-------------------------------14-----------------12----------------- 
----------14-12h14p12--12---------14--------------------------14-12----------- 
---------------------15------------------------------------------------------- 
------------------------------------------------------------------------------ 
                                                                               


-------------------------------12--------15////////////14p12-15///14p12------- 
-------------12-12-13///-15///------------------------------------------------ 
-------12-14------------------------------------------------------------------ 
-14-15------------------------------------------------------------------------ 
------------------------------------------------------------------------------ 
------------------------------------------------------------------------------ 

                                                                               

-15p14p12-15p14p12-15p14p12--------------------------------------------------- 
------------------------------------------------------------------------------ 
------------------------------------------------------------------------------ 
------------------------------------------------------------------------------ 
------------------------------12^12^---/////12-10-12^r10-12p10--14------------ 
--------------------------------------------------------------12-------------- 
                                                                               


-20^-------/-15-20^20^--15-20^20^--15-20^20^--15-20^20^--15-20^20^--15-20^20^- 
------------------------------------------------------------------------------ 
------------------------------------------------------------------------------ 
------------------------------------------------------------------------------ 
------------------------------------------------------------------------------ 
------------------------------------------------------------------------------ 
                                                                               


-15-20^20^--15-20^-15-20^-20^-20^///----| 
----------------------------------------| 
----------------------------------------| 
----------------------------------------| 
----------------------------------------| 
----------------------------------------| 
                                                                               


|-22^22^22^22^------22^22^22^22^------22^22^22^22^------22^22^22^22^--------- 
|---------------------------------------------------------------------------- 
|---------------------------------------------------------------------------- 
|---------------------------------------------------------------------------- 
|---------------------------------------------------------------------------- 
|---------------------------------------------------------------------------- 
                                                                               


-22^22^22^-22-^22^22^-22-^22^22^-repeat--------------------------------------- 
------------------------------------------------------------------------------ 
------------------------------------------------------------------------------ 
------------------------------------------------------------------------------ 
------------------------------------------------------------------------------ 
------------------------------------------------------------------------------ 
                                                                               


|-24^*////////////////////////-------------| 
|------------------------------------------| 
|------------------------------------------| 
|------------------------------------------| 
|------------------------------------------| 
|-*=3semitones-----------------------------| 


                                                                               
Yaleo 
Yaleo 
Yaleo 
Yaleo 
|--------------------------------------------------------12------------------ 
|-15^---15p12---------------------------------------12h15-------------------- 
|------------14^-14p12-------------12----14p12--------------14p12------------ 
|---------------------14---x-x-x-x----14------14-----------------14---------- 
|---------------------------------------------------------------------------- 
|---------------------------------------------------------------------------- 
                                                                               


---------------------17^r--15-17^--15---------------------------15------------ 
-------------------------------------17-17-17-17-17-17-17-17-17--------------- 
-x-x-x-x-12------------------------------------------------------------------- 
------------14---------------------------------------------------------------- 
------------------------------------------------------------------------------ 
------------------------------------------------------------------------------ 
                                                                               


------12------------------------------------12-----12------------------------- 
--------15p12--------------------------12h15--12h15--15p12-------------------- 
-------------14p12--14p12-------12------------------------14p12\-------------- 
------------------14-----14-------14------------------------------------------ 
------------------------------------------------------------------------------ 
------------------------------------------------------------------------------ 
                                                                               


|----------------------------------------------------17-----17------20^-------- 
|-10b15------r10-r10-r10-r10-r10----------------17h19--20p17--20p17------------ 
|------------------------------------------------------------------------------ 
|------------------------------------------------------------------------------ 
|------------------------------------------------------------------------------ 
|------------------------------------------------------------------------------ 
                                                                               


--------------------------------------------------------22-19-22-19-22-19-22-- 
-14br-12-----------------------17///19///20///------22^---p--h--p--h--p--h---- 
---------14p12h14^-14p12------------------------------------------------------ 
------------------------14--------------------19///--------------------------- 
------------------------------------------------------------------------------ 
------------------------------------------------------------------------------ 
                                                                               


-22^-22^-22^-22^-22^-----------12///---12///---------------------------------- 
----------------------------15^-----15^-----------14br-12--------------------- 
----------------------------------------------------------14p12--------------- 
---------------------------------------------------------------14------------- 
------------------------------------------------------------------------------ 
------------------------------------------------------------------------------ 
                                                                               


-12-----------------------------------------------------------------------12-- 
------15p12---------------------------------------------------------------12-- 
-----------14^r12--14p12----------------------------12///14^-14p12--12h14^---- 
-----------------14-----14----------------------------------------14---------- 
--------------------------------12-9-12-9-12-9-12-9--------------------------- 
----------------------------------p-h--p-h--p-h--p---------------------------- 
                                                                               


------------------------------------------22-19-22-19-22-19-22-19-22- 
-15^//////15^//////-------------------22^---p--h--p--h--p--h--p--h--- 
--------------------------------------------------------------------- 
--------------------14///16///17///19-------------------------------- 
--------------------------------------------------------------------- 
--------------------------------------------------------------------- 
                                                                               


-19////--------------------12----12------------------------------------------- 
--------20--------15^--------15^---15p12-------------------------------------- 
----------------------------------------14p12--14p12--12h14^--/-/-/r-r-14^---- 
---------------------------------------------14-----14------------------------ 
------------------------------------------------------------------------------ 
------------------------------------------------------------------------------ 
                                                                               


-------------------| 
-------------------| 
-r-r-r14p12--------| 
-----------14------| 
-------------------| 
-------------------| 




artist: Santana & Dave Matthews 
song: love of my life 
album: supernatural 

h=hammer on 
p=pull-off 
/=slide up(or fast pick) 
\=slide down 
^=bend full 
b=bend half(rarely used) 
^r or br=bend and release   
Jam key=G minor 
transcribed by jordanlockert@yahoo.com 

here it is the whole song right to the end.  I can say that  
it is quite accurate all the way through. The only problem  
you may have is during the last 2 minutes, where there are no  
lyrics for reference points. Its divided into sections fairly  
clearly, but if you get lost, try listening for the really  
high bends to get back on track. 


Intro 
-|------------------------------------------------------------------ 
-|-----------------------------6------------------------------------ 
-|-------------------------------8----------5-/5----8-7------5^r---- 
-|-5-7-8----10^r-7----5-7-8--------7----7-8-------------8--------5-- 
-|------------------------------------------------------------------ 
-|------------------------------------------------------------------ 
                                                                               
------------------| 
------------------| 
------------------| 
--5-5-5-4-5-7-/7--| 
------------------| 
------------------| 
                                                                               
...wanna be  
-|-----------------------| 
-|-10-11^--11^r----------| 
-|--------------12-12----| 
-|-----------------------| 
-|-----------------------| 
-|-----------------------| 
                                                                               
...wanna see 
-|-------10-13-11-10-------------| 
-|-11-13-------------13-13^r^----| 
-|-------------------------------| 
-|-------------------------------| 
-|-------------------------------| 
-|-------------------------------| 
                                                                               
...my dream  
-|---------------10-----------| 
-|-13^-13-11-13^----11--------| 
-|---------------------12-12--| 
-|----------------------------| 
-|----------------------------| 
-|----------------------------| 
                                                                               
...to me  
-|---------------------------------------------------| 
-|---------------------------------------------------| 
-|-----5-/5----8-7------5^r--------------------------| 
-|-7-8-------------8--------5----5-5-5-4-5-7-/7------| 
-|---------------------------------------------------| 
-|---------------------------------------------------| 
                                                                               

-|------------------------------------------------------------ 
-|---------------------------------------------------6-------- 
-|-----------------------------------------------------8------ 
-|-5-7-8----------------------------5-7-8----------------7---- 
-|-------------------10^r-7----------------------------------- 
-|------you're-the...-------of-my...------and the...---------- 
                                              

--------------------------------------------------------------- 
--------------------------------------------------------------- 
--------------5-/5------------8--7--8-7-------7-8-7-----7-5---- 
----------7-8---------------------------8-5-8-------8-------5-- 
--------------------------------------------------------------- 
-in my...----------take my...---------------------------------- 
                                                           

---------------------------15---| 
-------------------------15^----| 
--------------------------------| 
--5-5-5-4-5-7-/7----------------| 
--------------------------------| 
--------------------------------| 
                                                                               
...your mouth  
-|---------------10--------------| 
-|-13^-13-11-13^----11-----------| 
-|---------------------12-12-----| 
-|-------------------------------| 
-|-------------------------------| 
-|-------------------------------| 
                                                                               
...pour out  
-|----15----15-------------| 
-|-18----18----18-^--------| 
-|-------------------------| 
-|-------------------------| 
-|-------------------------| 
-|-------------------------| 
                                                                               
...are one 
-|-13------------10------------| 
-|-13^-13-11-13^----11---------| 
-|---------------------12-12---| 
-|-----------------------------| 
-|-----------------------------| 
-|-----------------------------| 


-|---------------------------------------------------------| 
-|---------------------------------------------------------| 
-|-----5-/5----8-7------5^r--------------------------4---5-| 
-|-7-8-------------8--------5----5-5-5-4-5-7-----8---------| 
-|---------------------------------------------------------| 
-|-----------------------------------------------eve-ry-day| 
                                                                   

-|---------------------------------------------------------| 
-|-6-------------------------------------------------------| 
-|-----8----------7---5------------------------------------| 
-|---------7--------------5----5-5-8--7--5-/5--------------| 
-|---------------------------------------------------------| 
-|eve-ry--night--you--a--lone...---------------------------| 
                                                

interlude 
-|------------------------(8^r-5)--------------------------| 
-|-------(8-10-11)----------------------(8-10-11)---6------| 
-|----------------------------------------------------8----| 
-|-5-7-8--------------------------5-7-8-----------------7--| 
-|-----------------10^r-7----------------------------------| 
-|---------------------------------------------------------| 
                                                                               

-|---------------------------------------------------------| 
-|---------------------------------------------------------| 
-|-----5-/5----8-7------5^r--------------------------------| 
-|-7-8-------------8--------5----5-5-5-4-5-7-/7------------| 
-|---------------------------------------------------------| 
-|---------------------------------------------------------| 


-|------------------------(8^r-5)---------------------------| 
-|-------(8-10-11)----------------------(8-10-11)---6-------| 
-|----------------------------------------------------8-----| 
-|-5-7-8-----------10^r-7---------5-7-8-----------------7---| 
-|----------------------------------------------------------| 
-|----------------------------------------------------------| 
                                                                               

-|----------------------------------------------------------| 
-|----------------------------------------------------------| 
-|-----5-/5----7h8--7--8-7-----8-7----5^r-------------------| 
-|-7-8---------------------8-5-----8------5---5-5-5-4-5-7---| 
-|----------------------------------------------------------| 
-|----------------------------------------------------------| 
                                                                               

-|---------------13--11----------------------------------------| 
-|-11--12--13------------10---13^-13---------------------------| 
-|------------------------------------12---12-12-15-14-12-/12--| 
-|-------------------------------------------------------------| 
-|-------------------------------------------------------------| 
-|eve--ry--day--eve--ry-nite--you-a--lone...-------------------| 
                               

We go dancing... 
....dance, dance ,dance  

Outro 
-|------------------------------------------------------------- 
-|------------------------------------------------------------- 
-|-------------------------5--------5-7-8-7-8-7---------------- 
-|---7----5-4-5-8----7-6-7------7-8-------------8-5-8-----7---- 
-|-5----------------------------------------------------5------ 
-|------------------------------------------------------------- 
                                                                               

-|------------------------------------------------------------- 
-|-------------------------------------------8--10^r10-8-8----- 
-|---------------------5--^r--5/7-7-7-8-8-10------------------- 
-|5h7p5-4-5-8----7-6-7----------------------------------------- 
-|------------------------------------------------------------- 
-|------------------------------------------------------------- 
                                                                               

-|------------------------------------------------------------ 
-|--------------------10-11-10-13-10-11-10h11-10-------------- 
-|------------------12--------------------------12------------ 
-|-10-8-10^r------12------------------------------10--12--10-- 
-|--------------------------------------------------13--13---- 
-|------------------------------------------------------------ 
                                                                               

-|--------------------------------------------- 
-|-------------10h11-10----13----10-13-11^r---- 
-|----10h12-------------12-----------------12-- 
-|-12------------------------------------------ 
-|--------------------------------------------- 
-|--------------------------------------------- 
                                                                               


-|----------------10-------- 
-|----10-11-10-------13-13-- 
-|-12----------12----------- 
-|-------------------------- 
-|-------------------------- 
-|-------------------------- 
                                                                               

-|-------13-10----------------------------------------------- 
-|-10-13-------------10-11-10h11p10----13----10-13^r--------- 
-|----------------12----------------12---------------12------ 
-|----------------------------------------------------------- 
-|----------------------------------------------------------- 
-|----------------------------------------------------------- 
                                                                               

-|-------------------------10-10-10--10h11-10h11-10h11p10h11*- 
-|----10-11-10----11-13-13------------------------------------ 
-|-12----------12--------------------------------------------- 
-|------------------------------------------------------------ 
-|---------------------------------*-repeat-and speed-up------ 
-|------------------------------------------------------------ 


-|-10//11//12//12b--11p10------------------------------------- 
-|-----------------------11p10-------------------------------- 
-|----------------------------12p10------------10------------- 
-|---------------------------------12p10--10h12--10--10---10-- 
-|--------------------------------------13---------13--13----- 
-|------------------------------------------------------------ 


-|----15-17-18--17p15-18--17p15--18p17p15-18p17p15-18p17p15-18p17p15- 
-|-15---------------------------------------------------------------- 
-|------------------------------------------------------------------- 
-|------------------------------------------------------------------- 
-|------------------------------------------------------------------- 
-|------------------------------------------------------------------- 
                                                                               

-18p17p15-18p17p15-18p17p15-18p17p15-18^--18^--18^r-- 
----------------------------------------------------- 
----------------------------------------------------- 
----------------------------------------------------- 
----------------------------------------------------- 
----------------------------------------------------- 
                                                                               

-15--15--------------------15-----------------------| 
---18--18p15-----------------------------------15\--| 
-------------17^r15--15h17^--17^r15-17-17-15-17-----| 
-------------------17-------------------------------| 
----------------------------------------------------| 
----------------------------------------------------| 
                                                                               

-|----18-20^-20^-------18-20^-20^-------18-20^--20^--20^--20^--20^--20^- 
-|-20---------------20---------------20--------------------------------- 
-|---------------------------------------------------------------------- 
-|---------------------------------------------------------------------- 
-|---------------------------------------------------------------------- 
-|---------------------------------------------------------------------- 
                                                                               

--20-20-18-20\--| 
----------------| 
----------------| 
----------------| 
----------------| 
----------------| 


-|-8-----------6---------------8-----10p8--8---------------------------| 
-|--8--/8--8--8-------/10-10-10----10----11-8--8--8------------6-------| 
-|--------------------------------------------------7-6-5---/7---5--5--| 
-|-------------------------------------------------------8---------8---| 
-|---------------------------------------------------------------------| 
-|---------------------------------------------------------------------| 
                                                                               

-|----------------------------------8--10--10--11//12//13//-15--15-- 
-|-10----8----8-11----10h11p10-9-10--------------------------------- 
-|---------11------------------------------------------------------- 
-|------------------------------------------------------------------ 
-|------------------------------------------------------------------ 
-|------------------------------------------------------------------          


-|----20-20^////////////r^-20^--18--------------15-------15-- 
-|-18-----------------------------20--20-20-20-----15-16----- 
-|----------------------------------------------------------- 
-|----------------------------------------------------------- 
-|----------------------------------------------------------- 
-|----------------------------------------------------------- 


---18^r15----15-------15------18p15---------15---15--- 
----------18-------18^--15h18^-----18p15-18^--18^----- 
------------------------------------------------------ 
------------------------------------------------------ 
------------------------------------------------------ 
------------------------------------------------------ 
                                                                               

-20^--18p15-15-----15---------------------------------------------------| 
-----------------18--18p17p16p15----------------------------------------| 
--------------------------------17p15--17p15----------------------------| 
-------------------------------------17-----17-----------15-------------| 
----------------------------------------------15--15--/17--15--15--15\--| 
------------------------------------------------18--18-------18--18-----|       
                                    
                             

-|---------------10----------8----------------------------- 
-|-8--11--10--8------11--10-----11--10--8------------------ 
-|--------------------------------------------------10-12-- 
-|-----------------------------------------10-8-/12-------- 
-|--------------------------------------------------------- 
-|--------------------------------------------------------- 
                                                                               

-|-10--10-10--10-10--10-10-10-------------------------------------- 
-|-11--11-11--11-11--11-11-11-13-------10br-8---------------------- 
-|-------------------------------12-------------------------------- 
-|--------------------------------------------10^r-10-8-10-8-10^r-- 
-|----------------------------------------------------------------- 
-|----------------------------------------------------------------- 


--------------------------------------------------- 
-----11----11----11---11--11----11----11-13-13-13-- 
-/12----12----12----12--12---12----12-------------- 
--------------------------------------------------- 
--------------------------------------------------- 
--------------------------------------------------- 
                                                                               

------------------------------------18-20^////////////r^-18p15-- 
-3////4//5////6///7//8////10//11//------------------------------ 
---------------------------------------------------------------- 
---------------------------------------------------------------- 
---------------------------------------------------------------- 
---------------------------------------------------------------- 
                                                                               

----18p15--15---18p15--15----------------------------------------------- 
-18^-----18--18^-----18--18^--18^--18^--18^--18^r15---18^r15---18^r15--- 
------------------------------------------------------------------------ 
------------------------------------------------------------------------ 
------------------------------------------------------------------------ 
------------------------------------------------------------------------ 
                                                                               

----------------------------------------------------------------------- 
-18^r15---------15b18--r--r--r--r--r--17------------------------------- 
--------17p15----------------------------19--r--r--r--17--15p14-------- 
-------------17------------------------------------------------17p15--- 
--------------------------------------------------------------------17- 
----------------------------------------------------------------------- 
                                                                               

----15-----15-----15-----15-----15 faded-out- 
-13^---13^----13^----13^----13^-------------- 
--------------------------------------------- 
--------------------------------------------- 
--------------------------------------------- 
--------------------------------------------- 




Artist: Santana & Everlast 
Song: Put your lights on 
Album: Supernatural  
Transcribed by jordanlockert@yahoo.com 

Acoustic Guitar  
Intro 
  Am              C                G              FMaj7    E 
|-0---0-0--0-0----0---0-0-0-0-0----3---3-0---0----0-0-0-0--0-- 
|-1---1-1--0-1----1---3-3-1-0-1----0---0-0-3-3----1-1-1-1--0-- 
|-2---2-2--2-2----0---0-0-0-0-0----0---0-0-0-0----2-2-2-2--1-- 
|-2---2-2--2-2----2---2-2-2-2-2----0---0-0-0-0----3-3-3-3--2-- 
|-0---0-0--0-0----3---3-3-3-3-3----2---2-2-2-2----0-0-0-0--2-- 
|----------------------------------3---3-3-3-3-------------0--  


Lead Guitar 
Intro 
-|--------------------------------------------------------| 
-|-13p12-10-------------8--------8------------------------| 
-|----------------9-7-9------------/9-7--------7h9--------| 
-|-------------------------------------------------10-10--| 
-|--------------------------------------------------------| 
-|--------------------------------------------------------| 


                                                                               
...put your lights on 
-|--------------| 
-|-8------------| 
-|---9-7---7-9--| 
-|-------9------| 
-|--------------| 
-|--------------| 


                                                                               
...Hey now 
-|-----------| 
-|-------8-8-| 
-|-9-7-9-----| 
-|-----------| 
-|-----------| 
-|-----------| 
                                                                               


...ya lovers 
-|-8p7-----------| 
-|-----8---8h10--| 
-|-------9-------| 
-|---------------| 
-|---------------| 
-|---------------| 
  

                                                                              
...put your lights on          
-|---------------------------------------| 
-|---------------------------------------| 
-|-/7---5-7---5-7---5----------------5---| 
-|--------------------7(5)-------5-7---7-| 
-|-----------------------(7)(5)----------| 
-|----------------------------(8)--------| 



...all ya killers 
-|-----------------| 
-|-8-6---6---------| 
-|-----9---/9-/9-7-| 
-|-----------------| 
-|-----------------| 
-|-----------------| 



put your lights on     
-|-------------------------------------------| 
-|-------------------------------------------| 
-|-9-----------------------------------12h14-| 
-|---10------------9-----10-----12-----------| 
-|------12-/12-------------------------------| 
-|-------------------------------------------| 



...Hey now 
-|-----------| 
-|-------8-8-| 
-|-9-7-9-----| 
-|-----------| 
-|-----------| 
-|-----------| 
                                                                               


...all ya children 
-|-8p7-----------| 
-|-----8---8h10--| 
-|-------9-------| 
-|---------------| 
-|---------------| 
-|---------------| 
                                                                               


...leave your lights on 
-|-------------------| 
-|-------------------| 
-|-----12-12-12--h14-| 
-|-/14---------------| 
-|-------------------| 
-|-------------------| 
                                                                               


...theres a monster 
-|------------------------| 
-|------------------------| 
-|-14--------------12-----| 
-|--------------------14--| 
-|------------------------| 
-|------------------------| 


                                                                               
...under my bed 
-|--------------------------------| 
-|-10-----------------------------| 
-|----12-9---------------9--------| 
-|---------12-12-10-12^----10-----| 
-|----------------------------12--| 
-|--------------------------------| 
                                                                               


...in my ear 
-|------------------------| 
-|------------------------| 
-|------------------------| 
-|---------------7-10-7-7-| 
-|-/7-7-7-7-7-10----------| 
-|------------------------| 
                                                                               


...hand on my head 
-|-----------------------------------------------------| 
-|-10--------------------------------------------------| 
-|----12-9---------------------------------------------| 
-|---------12-10-12-12p10---10-14p10------10h12p10-----| 
-|-----------------------12---------12------------12---| 
-|--------------------------------------------------12-| 


                                                                               
...nothing to fear 
-|-------------------------------------| 
-|-------------------------------------| 
-|-/7---/7---/7-5-7---7-5-------5h7p5--| 
-|------------------------7----------7-| 
-|-------------------------------------| 
-|-------------------------------------| 
  

                                                                              
...a darkness 
-|------8---------------| 
-|-8-10---10-10---10p8--| 
-|--------------------9-| 
-|----------------------| 
-|----------------------| 
-|----------------------| 


                                                                               
...deep in my soul 
-|-----------------------| 
-|-----------------------| 
-|-7^------9-r-r-r-r-7*--| 
-|-----------------------| 
-|-----------------------| 
-|-----------------------| 
*gradually release while picking 



...purpose to serve 
-|-------------------------------| 
-|-------------------------------| 
-|-------------------------5-----| 
-|---------------------5-7---7-7-| 
-|-/7--/7--/7--7-7-7-7-----------| 
-|-------------------------------| 
                                                                               


...light shine 
-|-----15-| 
-|-15^----| 
-|--------| 
-|--------| 
-|--------| 
-|--------| 
                                                                               


...into my hole 
-|---------------12---------------| 
-|-17r15-13-15^-----13------------| 
-|---------------------14----12---| 
-|-----------------------------14-| 
-|--------------------------------| 
-|--------------------------------| 
                                                                               


...lose my nerve  
-|--------12/////-15^-15^-15^----------| 
-|-15/////-----------------------------| 
-|-------------------------------------| 
-|-------------------------------------| 
-|-------------------------------------| 
-|-------------------------------------| 
                                                                               


...lose my nerve. 
-|-C-------C#------G-------F--------E---| 
-|--------------------------------------| 
-|-5-5-----6-6--------------------------| 
-|-5-5-----6-6-----5-5-----3-3-3-3--2-2-| 
-|-3-3-----4-4-----5-5-----3-3-3-3--2-2-| 
-|(rythym guitar)--3-3-----1-1-1-1--0-0-| 
                                                                               


solo 
-|-------------------------------------------------| 
-|---12b-----13b-----------------------------------| 
-|-----------------------9h10h12-9h10p9--9h10p9--9-| 
-|---------------------------------------------12--| 
-|-------------------------------------------------| 
-|-------------------------------------------------| 
                                                                               



-|----------------------------------------------------- 
-|---12bwawa--13bwawa------5-6-8-6--5----5------------- 
-|-----------------------7------------7------7p5-7^r-5- 
-|----------------------------------------------------- 
-|----------------------------------------------------- 
-|----------------------------------------------------- 

                                                                               

--------------------------------------------------- 
--------------------------------------------5---5^- 
-7-5-7-5-------------------------5-7-7-5-7^---7---- 
---------7p5-----------------5-7------------------- 
------------7p5---------7-10----------------------- 
---------------8---8-10---------------------------- 



----------------------------------17p15-----17p15--------- 
-10wah---10wah---10wah---10wa10wa------17p15-----17p15---- 
----------------------------------********************---- 
---------------------------------------------------------- 
---------------------------------------------------------- 
---------------------------------------------------------- 
***** mess around with these notes. It's that part that's                
played really scratchy, with distortion and wah***** 



----12---12-12-13-15-13--12------------| 
-15^--15^-------------------15^r`~~~---| 
---------------------------------------| 
---------------------------------------| 
---------------------------------------| 
---------------------------------------|end solo 
                                                                               


Hey now Hey now Hey now Hey now Hey now 
-|--------------------------------------| 
-|-8-6---6------------------------------| 
-|-----9---/9-/9-7------/9-7------12h14-| 
-|---------------------------10---------| 
-|--------------------------------------| 
-|--------------------------------------| 
                                                                               


-|-----------| 
-|-------8-8-| 
-|-9-7-9-----| 
-|-----------| 
-|-----------| 
-|-----------| 


                                                                               
Woh oh  
Hey Now 
-|--------------------------------- 
-|-13-------13-12---13-12---------- 
-|-------12---------------12-12h14- 
-|--------------------------------- 
-|--------------------------------- 
-|--------------------------------- 
                                                                               


Hey now Hey now Hey now Hey now  
---------------------------------| 
---------------------------------| 
-------------------12------------| 
-12----12--12h14--------12----12-| 
----15---------------------15----| 
---------------------------------| 



Hey now 
-|------8---------------| 
-|-8-10---10-8h10----8--| 
-|--------------------9-| 
-|----------------------| 
-|----------------------| 
-|----------------------| 
                                                                               


...sinners 
-|---------------------| 
-|-8-------------------| 
-|---7h9p7----7h9p7--7-| 
-|---------10------10--| 
-|---------------------| 
-|---------------------| 
                                                                               


put your lights on 
-|-----------| 
-|-----------| 
-|-----------| 
-|-----10----| 
-|-/12----12-| 
-|-----------| 
                                                                               


put your lights on 
-|--------------------------| 
-|-10-----------------------| 
-|----9-------------9-------| 
-|------12-10-12^-----10----| 
-|-----------------------12-| 
-|--------------------------| 
                                                                               


Hey now 
-|------| 
-|-8-10-| 
-|------| 
-|------| 
-|------| 
-|------| 
                                                                               


...all ya children 
-|-7h8-8--8-8p7-----| 
-|--------------8---| 
-|----------------9-| 
-|------------------| 
-|------------------| 
-|------------------| 
                                                                               


...your lights on        
-|--------------------------| 
-|----8-10-/10-10-/10-10-10-| 
-|-/9-----------------------| 
-|--------------------------| 
-|--------------------------| 
-|--------------------------| 



...theres a monster 
-|-10-12-----12-12-/12-12-/12-12-10- 
-|---------------------------------- 
-|---------------------------------- 
-|---------------------------------- 
-|---------------------------------- 
-|---------------------------------- 
                                                                               


...under my bed 
--12-10-------------------------------------| 
--------12-9--------------------------------| 
-------------9---------------------------12-| 
---------------12p10p9-------------12-14----| 
-----------------------12p10---/14----------| 
----------------------------12--------------| 
                                                                               


...in my ear 
-|------------------------------------------------ 
-|-15-12-15-12-15-12-15-12-15-12-15-12--15^------- 
-|---p--h--p--h--p--h--p--h--p -h--p-------------- 
-|------------------------------------------------ 
-|------------------------------------------------ 
-|------------------------------------------------ 
                                                                               



-15-12-15-12-15-12-15-12-15^--15^----------12---| 
---p--h--p--h--p--h--p-----------------------15-| 
------------------------------------------------| 
------------------------------------------------| 
------------------------------------------------| 
------------------------------------------------| 


                                                                               
...hand on my head 
-|-12--10---------------------------| 
-|---------13-12-13-12-13-10--------| 
-|-----------------------------12p9-| 
-|----------------------------------| 
-|----------------------------------| 
-|----------------------------------| 


                                                                               
...nothing to fear 
-|---------------------------------------------| 
-|---------------------------------------------| 
-|-----12-12-----12-12----14-12----------------| 
-|-/14-------/14-------14-------14----12-------| 
-|---------------------------------15----15-12-| 
-|---------------------------------------------| 


                                                                               
  la       la la ha    hey la la             ya gotta 
-|------------------------------------------ 
-|---------------8--8----------------------- 
-|-/9-------7-9-------------------/9-7------ 
-|-------------------------------------10--- 
-|------------------------------------------ 
-|------------------------------------------ 


                                                                               
shine like a star 
-------------------------------------------| 
-----------------------------8-8---8-10-10-| 
----9-7----7--9-----------/9-----9---------| 
--------10-----10p7---10-------------------| 
-------------------------------------------| 
-------------------------------------------| 
                                                                               


   la             la la  ha          hey la la          ya gotta 
-|-12-------------10-12--15 ----12---------------------------- 
-|--------------------------------15-------15^----15^---15^--- 
-|------------------------------------------------------------ 
-|------------------------------------------------------------ 
-|------------------------------------------------------------ 
-|------------------------------------------------------------ 



 shine like a star                      then fade away 
-12-15-15p12--12---12---------------12--------------------| 
------------15--------13------13-15-----------------------| 
-------------------------14-------------12-12-12-12h14-14-| 
----------------------------------------------------------| 
----------------------------------------------------------| 
----------------------------------------------------------| 


END WITH 
 Am 
|-0-0-0-0-0-----------5----------------| 
|-3-1-0-1-0----------5-----------------| 
|-2-2-2-2-2---------5------------------| 
|------------------7-------------------| 
|-----------------7--------------------| 
|----------------5---------------------| 
                                                                               


                                                                         
Artist: Santana 
Song: Africa Bamba 
Album: Supernatural  
Transcribed by jordanlockert@yahoo.com 

Tablature Explanation: 
h=hammer-on 
p=pull-off 
/=slide up or indicates picking 
\=slide down 
b=bend half  
^=bend full 
br, ^r=bend &release 
Jam key= A minor 

Intro 
Classical Guitar  
|---------------------------------------------------------------------| 
|------------------------10----------------------------------------10-| 
|----------7h9-7-9-----9----9-9-7-9-7-----9p7---------7----------9----| 
|---7h9h10------------------------------------10-10-9---9-10----------| 
|-7-------------------------------------------------------------------| 
|---------------------------------------------------------------------| 
                                                                               


|------------------------------------------------------------------ 
|---8-------------------8-------------------10-10-9-9-------------- 
|-9---10-9-7----9-----9---10-9-7---/9-7---------------10--9--7--7-- 
|------------10------------------10-------------------------------- 
|------------------------------------------------------------------ 
|------------------------------------------------------------------ 
                                                                               

--------------------------| 
--------------------------| 
--------------7-----------| 
-10-10-10--9----10--9--7--| 
--------------------------| 
--------------------------| 

                                                                               
Electric Guitar 
-|-------------------------------------10-10-------------------- 
-|-12br-10-10-----12br--10-12-13-12-13-------13----13-12-12-10-- 
-|-------------------------------------------------------------- 
-|-------------------------------------------------------------- 
-|-------------------------------------------------------------- 
-|-------------------------------------------------------------- 
                                                                               


--8---------------------| 
-----10-----------------| 
---------9p7----7h9-9---| 
-------------10---------| 
------------------------| 
------------------------| 
                                                                               


-|----------------------------10--10--12--12br-13-12-13-15-13-12-13- 
-|--10-10-10--12--12--13--13---------------------------------------- 
-|-9---------------------------------------------------------------- 
-|------------------------------------------------------------------ 
-|------------------------------------------------------------------ 
-|------------------------------------------------------------------ 

                                                                               

-12h13p12---12------------------------------------------| 
---------15----15-15-13-12-13---------------------------| 
------------------------------14-14-14-14---------------| 
------------------------------------------14-12-14------| 
--------------------------------------------------------| 
--------------------------------------------------------| 

                                                                               
Classical Guitar 
...portugueza  
-|--7-8-7---------------| 
-|-10-----10-9----------| 
-|-9-----------10-9-7---| 
-|----------------------| 
-|----------------------| 
-|arp-------------------| 
                                                                               


...portugueza  
-|---------------------------------------| 
-|-10-12-13--10--13-10-12-13-10-12-13----| 
-|---------------------------------------| 
-|---------------------------------------| 
-|---------------------------------------| 
-|---------------------------------------| 



...portugueza  
-|-12///////13-12----12----12-----------------------------------------| 
-|----------------15----15----15-13-15--13-13-12-15-13-12-13----------| 
-|-----------------------------------------------------------14-14----| 
-|--------------------------------------------------------------------| 
-|--------------------------------------------------------------------| 
-|--------------------------------------------------------------------| 


... 
... 
...                                                                             
  
...feliz 
-|----8-8-7------------------| 
-|--10------10---------------| 
-|-9-----------9-7----9-7----| 
-|-----------------10--------| 
-|---------------------------| 
-|---------------------------| 
                                                                               

...feliz 
-|-------------------------------------| 
-|-12br-10-10--------------------------| 
-|------------12-10-9------------------| 
-|--------------------12-10-12^r-------| 
-|-------------------------------------| 
-|-------------------------------------| 
                                                                               

...feliz 
-|----------------------------------12h13-13p12---12------------------| 
-|-------------------------12h13h15------------15----15-15-13--15-----| 
-|----------------------14--------------------------------------------| 
-|-------------12h14h15-----------------------------------------------| 
-|----12h14h15--------------------------------------------------------| 
-|-12-----------------------------------------------------------------| 
                                                                               

...feliz 
-|-------12--------12-------12-------12------| 
-|----13-------13--------13-------13---------| 
-|-14-----------------14-------14------------| 
-|-------------------------------------------| 
-|-------------------------------------------| 
-|-------------------------------------------| 



Classical Guitar                                                                
      
         
...portugueza  
-|---------------------------------| 
-|-10-12-12-12--12h13-13/15-15-----| 
-|---------------------------------| 
-|---------------------------------| 
-|---------------------------------| 
-|---------------------------------| 
                                                                               

...portugueza  
-|-12-12------------------| 
-|--------13--------------| 
-|-----------14-----------| 
-|--------------14--------| 
-|-----------------15-----| 
-|------------------------| 
                                                                               

...portugueza  
-|-------------------------------| 
-|-12-12-12-12-9-----------------| 
-|----------------10-9-----9-----| 
-|---------------------12--------| 
-|-------------------------------| 
-|-------------------------------| 

                                                                               

... 
... 
... 
...esta danza (Electric) 
-|-----------------------| 
-|-10-8------------------| 
-|-----/9-7----7h9p7-----| 
-|----------10-----------| 
-|-----------------------| 
-|-----------------------| 


...cancion  
-|----------------------------------12h13-------| 
-|-------------------------12h13h15-------------| 
-|----------------------14----------------------| 
-|-------------12h14h15-------------------------| 
-|----12h14h15----------------------------------| 
-|-12-------------------------------------------| 
                                                                               

...tristeza 
-|-12-12-12-12-13-12----12----------12--------| 
-|-------------------15----15-13-15----15-----| 
-|--------------------------------------------| 
-|--------------------------------------------| 
-|--------------------------------------------| 
-|--------------------------------------------| 
                                                                               

...encontrar  
-|--------------------------| 
-|-12br-10-10----10---------| 
-|------------12----12^-----| 
-|--------------------------| 
-|--------------------------| 
-|--------------------------| 
                                                                               

...feliz  
-|----------------------------------| 
-|----------------------------------| 
-|----14-----14---------------------| 
-|-/14----/14----14--12----12^r-----| 
-|----------------------15----------| 
-|----------------------------------| 
                                                                               

...feliz  
-|-7h8-8-8--7--7-------------------------| 
-|----------------10--10-----------------| 
-|------------------------/9--/9--7------| 
-|---------------------------------------| 
-|---------------------------------------| 
-|---------------------------------------| 
                                                                               

...feliz  
-|-5---8-5h8p5-------------------| 
-|---5---------8-5---5-----------| 
-|----------------/7---7-5-7^r---| 
-|-------------------------------| 
-|-------------------------------| 
-|-------------------------------| 
                                                                               

...feliz  
-|-------12-12--------12-12-13-12-15-12-----| 
-|----13-----------13-----------------------| 
-|-14-----------14--------------------------| 
-|------------------------------------------| 
-|------------------------------------------| 
-|------------------------------------------| 
                                                                               

Solo 
-|------7-8-7-------------------------------------------| 
-|---10--------10--8------------------------8-10--------| 
-|-9------------------10--9-7h9-------9-10-------9-7----| 
-|------------------------------------------------------| 
-|------------------------------------------------------| 
-|------------------------------------------------------| 
                                                                               

-|--------------------------------------------------------------------| 
-|-------------------------------------------------------------10-----| 
-|----7--------------------------------------------7--7--9--9---------| 
-|-10---10-9-10--7-7-----------7-7-----7-9--7-9-10--------------------| 
-|-------------------7\5---5h7------10--------------------------------| 
-|-----------------------8--------------------------------------------| 
                                                                               

-|--------------------------------------------------------------------------| 
-|---------------------------------------------------12-12-12-13-13-13-15---| 
-|----14---14-14-----14---14-14------14-14--14-14-14------------------------| 
-|-12^---^--------12^---^--------12^----------------------------------------| 
-|--------------------------------------------------------------------------| 
-|--------------------------------------------------------------------------| 
                                                                               

-|-12-12----12----12-----12---12- 
-|-------15^---15^---15^---15^--- 
-|------------------------------- 
-|------------------------------- 
-|------------------------------- 
-|-------------------------------                                               
      


----13-15-17-12h13p12--12--------------------------------------------- 
-17------------------15--15--13-15--13-13-12-13----------------------- 
------------------------------------------------14-14--14-14-14-14-14- 
---------------------------------------------------------------------- 
---------------------------------------------------------------------- 
---------------------------------------------------------------------- 
                                                                               

-|-----12-12-12------12-12-12------12--12-12------------------------- 
-|---13------------13------------13-----------5////6////7////8////--- 
-|-14------------14------------14------------------------------------ 
-|------------------------------------------------------------------- 
-|------------------------------------------------------------------- 
-|------------------------------------------------------------------- 
                                                                               

-|-------------------------17-20p19p17-20p19p17-20p19p17-20p19p17-20p19p17---- 
-|-10wah10wah10wa10wa10wa----------------------------------------------------- 
-|---------------------------------------------------------------------------- 
-|---------------------------------------------------------------------------- 
-|---------------------------------------------------------------------------- 
-|---------------------------------------------------------------------------- 
                                                                               

-20p19p17-20^--20^r-17h20p17--17----------------------------------| 
----------------------------20---20-17-20-20p17--17---------------| 
-----------------------------------------------19--19^r17---------| 
---------------------------------------------------------19-------| 
------------------------------------------------------------------| 
------------------------------------------------------------------| 

now the song changes and there isnt really any guitar worth tabbing out. 
                                                                               





artist: Santana & Rob Thomas 
song: Smooth 
album: supernatural 

tablature explanation: 
h=hammer on 
p=pull-off 
/=slide up(or fast pick) 
\=slide down 
^=bend full 
b=bend half 
^r or br=bend and release   
Jam key= A minor 
transcribed by jordanlockert@yahoo.com 

This is the long version of this song. If you are listening to  
the shorter version,omit the bars that are labeled "skip" 

intro 
|----------------------------- 
|----------------------------- 
|-------12----12h14----------- 
|-12h14----14----------------- 
|----------------------------- 
|----------------------------- 
                                                                               


------------------------------------ 
-------12-12br-----12-13------------ 
-13-14----------14-------14--------- 
------------------------------------ 
------------------------------------ 
------------------------------------ 
                                                                               


------------------------------ 
------------------------------ 
--------------12-------------- 
-12^-12^-12^-----12p10-------- 
------------------------------ 
-SKIP------------------------- 
                                                                               


-----------------------------| 
-----------------------------| 
-----------------------------| 
-12p10p9---------------------| 
---------12-11-12-/14-12-----| 
-SKIP------------------------| 
                                                                               

Man... 
Like... 
I... 
...cool  
|----------------------------------------------------| 
|-------------------12h13p12-15-13-12-------12-------| 
|-------------------------------------14-13----13-14-| 
|--------------12h14---------------------------------| 
|---------12h15--------------------------------------| 
|-12--15---------------------------------------------| 
                                                                               


...Mona Lisa  
|----------------| 
|-15^-15^-15--17-| 
|----------------| 
|----------------| 
|----------------| 
|----------------| 
                                                                               


...groove  
|----12--15p12--12----------12------| 
|-15^---------15--15--13-15----15^--| 
|-----------------------------------| 
|-----------------------------------| 
|-----------------------------------| 
|-----------------------------------| 
                                                                               

And... 
I would... 
...mood 
|-----------------------------| 
|-----------------12-13p12----| 
|--------------14----------14-| 
|-12////-14-15----------------| 
|-----------------------------| 
|-----------------------------| 
    


...so smooth                                                                    
      
|----12----12-15p12--12--------------------------------| 
|-15^---15^--------15 -13--15p13-15p13-15p13-15p13-----| 
|---------------------------------------------------14-| 
|------------------------------------------------------| 
|------------------------------------------------------| 
|------------------------------------------------------| 
                                                                               

And... 
Well... 
You...  
Gimme... 
...about it  
|---------------------------------------------------- 
|-----------------12-12br----12-13--------------15^-- 
|-/14-------13-14----------14-----14----------------- 
|---------------------------------------------------- 
|---------------------------------------------------- 
|---------------------------------------------------- 
                                                                              


-------------------| 
------15^r13-------| 
-------------14----| 
-------------------| 
-------------------| 
-------------------| 
   


...shame                                                                        
      
|--------| 
|--------| 
|--------| 
|-/14-12-| 
|--------| 
|--------| 
                                                                               


In... 
...me out 
|------------------------------------------------------| 
|-------------------12-13-12--13p12--------------------| 
|-------------12-14-----------------14-14-13-14-13-14--| 
|-12h14-12h14------------------------------------------| 
|------------------------------------------------------| 
|------------------------------------------------------| 
                                                                               


Out... 
You... 
...and round 
|----12--15p12--12----------12------| 
|-15^---------15--15--13-15----15^--| 
|-----------------------------------| 
|-----------------------------------| 
|-----------------------------------| 
|-----------------------------------| 



And if... 
I would... 
...your mood                                                                    
      
|-------------------------------------| 
|--------------12-13---15-13-15-13-15-| 
|-----------14------------------------| 
|-12-14-15----------------------------| 
|-------------------------------------| 
|-------------------------------------| 



...so smooth                                                                    
      
|----12----12-15p12--12----------------------------| 
|-15^---15^--------15--15--15p13-15p13-15p13-15p13-| 
|--------------------------------------------------| 
|--------------------------------------------------| 
|--------------------------------------------------| 
|--------------------------------------------------| 
                                                                               


|----------------------------------------------------------- 
|-------------------------------12------------------12--13-- 
|----------14-----------------------------------14---------- 
|----------------------------------------------------------- 
|----------------------------------------------------------- 
|----------------------------------------------------------- 
..........just.................under............well........ 
                     


----------------------------------------------- 
----------------------15----------------------- 
----------------------------------------------- 
----------------------------------------------- 
----------------------------------------------- 
----------------------------------------------- 
.....................get....................... 
                                


---12h13p12------12-----------------------5\------------- 
-----------15p13----13-15-13-15-15-13-----6\------------- 
------------------------------------------5\------------- 
------------------------------------------7\------------- 
------------------------------------------5\------------- 
--------------------------------------------------------- 
..kinda.lovin.............................gimme...........                      
  



-5---------7\--------------------------| 
-6---------9\--------------------------| 
-5---------7\--------------------------| 
-7---------9\--------------------------| 
-5---------7\--------------------------| 
---------------------------------------| 
make......real.......................                                         



Solo! 
|--------------------------------------------------------- 
|-----------------12br---------------------------12-13-12- 
|-14-------13--14------14-------16p14p13------13---------- 
|------------------------------------------14------------- 
|--------------------------------------------------------- 
|-SKIP---------------------------------------------------- 
                                                                               


-----------------------------------------------------------| 
----------12------12-12h13-12----13p12---------------------| 
-14----------13---------------13-------14------------------| 
--------------------------------------------/14-/14-12-14--| 
-----------------------------------------------------------| 
-SKIP------------------------------------------------------| 
                                                                               


|-15^-15^-15^r-12----12----19br-17---12h15p12------ 
|-----------------15-------------------------15-17- 
|-------------------------------------------------- 
|-------------------------------------------------- 
|-------------------------------------------------- 
|-------------------------------------------------- 
                                                                               


------------------17-19-20-19-20-19-20-19-20-19-20-19-20-19- 
-13-15h17p15----17------------------------------------------ 
------------------------------------------------------------ 
------------------------------------------------------------ 
------------------------------------------------------------ 
------------------------------------------------------------ 
                                                                               


-20-19-20^--////20p17---17------------17-------------- 
---------------------20^------20^-20^----20p17--17---- 
----------------------------------------------19--19^- 
------------------------------------------------------ 
------------------------------------------------------ 
------------------------------------------------------ 
                                                                               


---17------------------------------------------------- 
-17--20p17-------------------------5-5-5555-6666-7777- 
----------19^r17--17-19\------------------------------- 
----------------19------------------------------------ 
------------------------------------------------------ 
------------------------------------------------------ 
                                                                               


--------------------------------| 
-8888-9999-10101010-11111111-12-| 
--------------------------------| 
--------------------------------| 
--------------------------------| 
--------------------------------| 
                                                                               

REPEAT CHORUS 


outro 
|------------------------------------------------------------ 
|-----------------12-12br----12-13----------15^-------------- 
|-/14-------13-14----------14------14----------------/14----- 
|------------------------------------------------------------ 
|------------------------------------------------------------ 
|------------------------------------------------------------ 
                                                                               


------------------------12-------------------------------| 
-------12-12br----12-13---13-12h13p12--------------------| 
-13-14----------14--------------------14p12h14-----------| 
---------------------------------------------------------| 
---------------------------------------------------------| 
---------------------------------------------------------| 
                                                                               


|------------------------------------------------------------ 
|-17-17-17-17-17-17----15------17-17-17-17-17-17----17------- 
|-17-17-17-17-17-17-16---------17-17-17-17-17-17-16---------- 
|------------------------------------------------------------ 
|------------------------------------------------------------ 
|------------------------------------------------------------ 
                                                                               


-12----12-15--12h15p12--12-------------17---17---17- 
----15^---------------15--15^-------15^--15^--15^--- 
---------------------------------------------------- 
---------------------------------------------------- 
---------------------------------------------------- 
---------------------------------------------------- 
                                                                               


----17----17----17----17--19-19-19-19^r--17-17-| 
-15^---17----17----17--------------------------| 
-----------------------------------------------| 
-----------------------------------------------| 
-----------------------------------------------| 
-----------------------------------------------| 
                                                                              


-----17----17---17-----19-19-20^20^--19p17----- 
--20^---20^ 20^-------------------------------- 
----------------------------------------------- 
----------------------------------------------- 
----------------------------------------------- 
----------------------------------------------- 
                                                                               


-15-12h15p12--12-------------------------------------------- 
------------15---17p13--13-15^15-13--15-13-15-13-15-13-15\-- 
----------------------14------------------------------------ 
------------------------------------------------------------ 
------------------------------------------------------------ 
------------------------------------------------------------ 
                                                                               


------------------------------------------------------------ 
-13-----------------------12-13-12-15-12-------------------- 
---14-14---------------14-----------------14---------------- 
-------------14-12--14-------------------------15-14-12h14-- 
------------------------------------------------------------ 
------------------------------------------------------------ 
                                                                               


|----------------------------------12-12------------20p19p17- 
|-------------------------12-13-15---------------17---------- 
|--------------------12-14--h--h----------------------------- 
|------12-14-15-14-15--h------------------------------------- 
|-12-15--h--h--p--h------------------------------------------ 
|---h---------(all solid sixteenths)------------------------- 
                                                                               


-20p19p17-20p19p17-20p19p17-20p19p17-20p19p17-20p19p17-20p19p17- 
---------------------------------------------------------------- 
---------------------------------------------------------------- 
---------------------------------------------------------------- 
---------------------------------------------------------------- 
---------------------------------------------------------------- 



-20p19p17-20p19p17-20p19p17-20p19p17-20p19p17-22--22p20p19-22p20p19- 
-------------------------------------------------------------------- 
-------------------------------------------------------------------- 
-------------------------------------------------------------------- 
-------------------------------------------------------------------- 
-------------------------------------------------------------------- 



-22p20p19-22p20p19-22^////////////////r^////--20h22------------- 
---------------------------------------------------22--20h20-20- 
---------------------------------------------------------------- 
---------------------------------------------------------------- 
---------------------------------------------------------------- 
---------------------------------------------------------------- 



-----------------------------------------|-17----------------17-19--- 
-20h22-22--20h22p20----------------------|---------18-17---17-------- 
-------------------21p19h21p19-----------|--------------------------- 
------------------------------22p19------|--------------------------- 
-----------------------------------------|--------------------------- 
-----------------------------------------|--------------------------- 

                                                                               


Song: Do you like the Way 
Artist: Santana featuring some other people 
Album:Supernatural 
Transcribed by jordanlockert@yahoo.com 

Tablature Explanation: 
h=hammer-on 
p=pull-off 
/=slide up or indicates rapid picking 
\=slide down 
b=bend  
^=bend full 
br, ^r=bend &release 
Jam key= B minor 

There's a bunch of lyrics between the intro and the solo that I  
didn't put in, and then a bunch more betwwen the solo and the outro, 
but the weren't neccesary 


Intro 
|------------------------------------------------- 
|------------------10-10-12-10h12----------------- 
|------9-9---9-9-9-----------------------/11-9---- 
|-9h11-------------------------------------------- 
|------------------------------------------------- 
|------------------------------------------------- 
                                                                               


-------------------------------------------------------------------| 
-/7------------------------------------------------------7---------| 
----9-7-9-7h9p7-6------------------------6-6-6-7-7-7-7h9---7-------| 
---------------------7-------------7-7-7---------------------9-----| 
-------------------9---------9-9-9---------------------------------| 
-------------------------------------------------------------------| 
   
                                                                             
Solo 
|------------------------------------------------------- 
|---------12------12-12-----12-12----12-12--12-15------- 
|-11--14------14^-------14^-------14^------------------- 
|------------------------------------------------------- 
|------------------------------------------------------- 
|------------------------------------------------------- 
      
                                                                          

-----------------------------------------14--17--14h17p14----14--------------- 
-----15-15-----15-15--15-15-15--17-15-17------------------17----17------------ 
-17^-------17^---------------------------------------------------------------- 
------------------------------------------------------------------------------ 
------------------------------------------------------------------------------ 
------------------------------------------------------------------------------ 
      
                                                                          

-----19----19-19-19-21-22-22^-22^-22^r--19-19--19-------------------------- 
--------19-----------------------------------22--22-19-22-19h22p19--19----- 
-20^--------------------------------------------------------------21--21^r- 
--------------------------------------------------------------------------- 
--------------------------------------------------------------------------- 
--------------------------------------------------------------------------- 
  
                                                                              

-------------------------------17------------------------------| 
-------------19--------------19--19-17^r----17----17-----------|            
-19----19-21----21^r-19------19----------19----19--------------| 
----21-------------------------------------------------16-19---| 
---------------------------------------------------------------|       
---------------------------------------------------------------| 
   
                                                                             

|-7--5--7--5--7--5-7-------------------- 
|-7--5--7--5--7--5-7------15-15-17------ 
|----------------------/16-------------- 
|--------------------------------------- 
|--------------------------------------- 
|--------------------------------------- 
   
                                                                             

|-7-------------------------------------------------------------------------- 
|----8--7--10-8-7------------------------------------------------------------ 
|-----------------9-7-9-7h9p7p6------------------9-9-11-12-12-12------------- 
|----------------------------------7---------/12----------------------------- 
|--------------------------------9------------------------------------------- 
|---------------------------------------------------------------------------- 
                                                                               


|------------------------------------------------- 
|-------15-15-15----15-15----15-15----15-15-15---- 
|-14h16----------16-------16-------16------------- 
|------------------------------------------------- 
|------------------------------------------------- 
|------------------------------------------------- 
  
                                                                              

------------------------------------------------------------------------- 
------15-15----15-15----15--15----15--15-15----14-17-17-14-17-17-14-17--- 
-14h16------16-------16--------16---------------------------------------- 
------------------------------------------------------------------------- 
------------------------------------------------------------------------- 
------------------------------------------------------------------------- 
                                                                               


------------------------------19-21-22--22^-22^-22^-22^---------| 
-19//////////20///22///--22^------------------------------------| 
----------------------------------------------------------------| 
----------------------------------------------------------------| 
----------------------------------------------------------------| 
-------------------------------------------------------end-solo-| 
                                                                               


|-7--5--7--5--7--5-7--------------------------------------------------------- 
|-7--5--7--5--7--5-7----/12-12----------------------------------------------- 
|--------------------------------------11--9------9-------------------------- 
|---------------------------------------------------12-11-12-11-------------- 
|-----------------------------------------------------------------9-12------- 
|---------------------------------------------------------------------------- 
                                                                               


-------------------------------------------------------| 
-------------------------------------------------------| 
-----9--9------9--9---9-9----9-9-9-11--9----9----------| 
-/11-------/11------11----11-------------12---12-------| 
-------------------------------------------------------| 
-------------------------------------------------------| 
   
                                                                            
... 
... 
... 
...can't we? 
|-7--5--7--5--7--5/7-7------------------14----------------------------------- 
|-7--5--7--5--7--5/7-7------15-------15-------17^-17p15-17-15-15---17-------- 
|------------------------16----16-------------------------------------------- 
|---------------------------------------------------------------------------- 
|---------------------------------------------------------------------------- 
|---------------------------------------------------------------------------- 
        
                                                                        
...goin' down baby 
--------------------------------------------------- 
-14-15-17--15h17p14-15-14-------------------------- 
--------------------------14-14-16-/16-14----16---- 
--------------------------------------------------- 
--------------------------------------------------- 
--------------------------------------------------- 
      
                                                                          
...Oh, Lord 
|--------------------------------------------------------------- 
|-12-----------12----------------------------------------------- 
|---/11--9--------11-9-11-/11----------------------------------- 
|------------------------------14-12----14-12-14-11------------- 
|-------------------------------------------------------12------ 
|----------------------------------------------------14--------- 
        
                                                                        

|------------------------------------------- 
|--------------------------------------15--- 
|-----------------------------14-14-16------ 
|-----14-14-14-14-14-14-14-14--------------- 
|-/14--------------------------------------- 
|------------------------------------------- 
       
                                                                         
...a minute  
|-------14--------------14------14-------14-------14-15-14-15-14-15-14-15- 
|----15--------------15------15-------15-------15------------------------- 
|-16--------------16---------------16-------16---------------------------- 
|------------------------------------------------------------------------- 
|------------------------------------------------------------------------- 
|------------------------------------------------------------------------- 
       
                                                                         

-14-15-17-17---14h17--14-17-14-17-14-17-14-17^-------17^-17^-17^-17^-17^-17^r- 
------------------------h--p--h--p--h--p--h----------------------------------- 
------------------------------------------------------------------------------ 
------------------------------------------------------------------------------ 
------------------------------------------------------------------------------ 
------------------------------------------------------------------------------ 
                                                                               


-14-17-17p14--14------------------------17-17p14--14-----------------------| 
------------17--17^-17-15-17-15-15--------------17--17^-17-15-17-14--------| 
------------------------------------------------------------------------14-| 
---------------------------------------------------------------------16----| 
---------------------------------------------------------------------------| 
---------------------------------------------------------------------------| 
        
                                                                        

-9-10-9----------9-10-9--------------------------------9-10---------12^-12---- 
--------10----10--------10----10-10h12-12--12--------------------------------- 
-----------11--------------11------------------------------------------------- 
------------------------------------------------------------------------------ 
------------------------------------------------------------------------------ 
------------------------------------------------------------------------------ 
       
                                                                         

----------------------------14-17----17h19-19--22-19-22-19-22-19-22-19-22^---- 
-------------------14-15-17----------------------p--h--p--h--p--h--p--h------- 
---14h16-14--14-16------------------------------------------------------------ 
------------------------------------------------------------------------------ 
------------------------------------------------------------------------------ 
------------------------------------------------------------------------------ 
        
                                                                        

-22--^22^-22^-22^-22^---22-19----19------------------------------------------- 
------------------------------22----22-19-22-22p19---19--------------------19- 
--------------------------------------------------21----21^-21-19----19-21---- 
------------------------------------------------------------------21---------- 
------------------------------------------------------------------------------ 
------------------------------------------------------------------------------ 
      
                                                                          

-------------------------------| 
-22-22p19---19-----------------| 
---------21----21^-21-19-21----| 
-------------------------------| 
-------------------------------| 
-------------------------------| 
                                                                               


|-19--------------------------19----------------------------------------------- 
|----19-17h19-17-----------------19-17h19-17------17-----17-15-14-15-14-------- 
|------------------19------------------------19----------------------------14- 
|-----------------------------------------------------------------------16----- 
|------------------------------------------------------------------------------ 
|----------------------------------------------------------------inaudible----- 




Artist: Santana 
Title: Maria maria 
Album: supernatural 
Transcribed by: jordanlockert@yahoo.com 

tablature explanation: 
h=hammer on 
p=pull off 
^=bend full 
r=release bend 
//////=indicates rapid picking 
Jam key A minor (or D minor?) 

I finally got around to doing this one after having finished  
some others from Supernatural. I didnt want to do it at first  
because some of the classical guitar parts are hard to hear,  
but I solved that problem by using headphones. 


Intro and verse: classical guitar 
|------7-8-7-7---| 
|---10-----------| 
|-9--------------| 
|----------------| 
|----------------| 
|----------------| 
                                                                               


|---------8-7-10-8-7-8-7-8-7--------| 
|---10-10--------------------10-----| 
|-9---------------------------------| 
|-----------------------------------| 
|-----------------------------------| 
|-----------------------------------| 
                                                                               


|-------------| 
|-------------| 
|----7-9------| 
|-10----------| 
|-------------| 
|-------------| 
                                                                               


|---------------------------| 
|--------8------------------| 
|----7-9---10-9-7----7-9----| 
|-10--------------10--------| 
|---------------------------| 
|---------------------------| 
                                                                               

...maria maria 
|--------------------------------| 
|-------------12-----------------| 
|----------14----14--------------| 
|-12-14-15----------15-14-15-----| 
|--------------------------------| 
|--------------------------------| 
                                                                              

...story 
|-----------------------------------| 
|-----------------------------------| 
|-------------12--------------------| 
|-------12-14----15-14-15--14-12----| 
|-12-15-----------------------------| 
|-----------------------------------| 
  

...harlem                                                                       
         
|-------------------------| 
|-------------------------| 
|---7---------------------| 
|-9---10-9-10-10p9--------| 
|-------------------------| 
|-------------------------| 
                                                                               

...star 
|---------------------------------------12-12-12-12-13----- 
|-----------------12-----13-----15------------------------- 
|----------14---------------------------------------------- 
|----12-14-----14-----14----------------------------------- 
|-15------------------------------------------------------- 
|---------------------------------------------------------- 
                                                                               

...maria maria  
---12-13-12-15-13-12-13p12------| 
--------------------------15----| 
--------------------------------| 
--------------------------------| 
--------------------------------| 
--------------------------------| 
                                                                               

...East L.A.   
|----------------------------------------------------------- 
|-------12-13-12-15-12-13-13--12--12------------------------ 
|----14-------------------------------14-------------------- 
|-14------------------------------------------14-15-14------ 
|----------------------------------------------------------- 
|----------------------------------------------------------- 
                                                                               

...guitar, yeah 
-------------------------------------| 
-------------------------------------| 
--------------12---------------------| 
--------12-14----15-14-15-14-12------| 
--14-15------------------------------| 
-------------------------------------| 
                                                                               

...Santana (Chorus - Electric) 
|-12-----12-13-12-------------12-----12-17-12-------------12--12----- 
|------------------13------13------------------13------13 --15------- 
|-----------------------14--------------------------14--------------- 
|-------------------------------------------------------------------- 
|-------------------------------------------------------------------- 
|-------------------------------------------------------------------- 
                                                                               


--12-13-12-------------12--12-12--12-12-12 -12-12-12-------| 
------------13------13-----13-13--13-13-13 -13-13-13-15----| 
-----------------14-------------------------------------14-| 
-----------------------------------------------------------| 
-----------------------------------------------------------| 
-----------------------------------------------------------| 


...maria maria (classical) 
|----------------------------------------| 
|-------------8--8-----------------------| 
|----7-9-10-9-------10--10--9--9---------| 
|-10-------------------------------10\---| 
|----------------------------------------| 
|----------------------------------------| 
                                                                               

...story 
|------7-7-8-8-8-7-10-8-7---------| 
|---10--------------------10------| 
|-9-------------------------------| 
|---------------------------------| 
|---------------------------------| 
|---------------------------------| 
                                                                               

...harlem 
|-----------------------------| 
|--------8--------------------| 
|-9-10-9---10-9---------------| 
|----------------10h12p10-----| 
|-----------------------------| 
|-----------------------------| 
                                                                               

...star, oh 
|-------------------------| 
|----------12-12-13-13----| 
|-14-13-14----------------| 
|-------------------------| 
|-------------------------| 
|-------------------------| 
                                                                               

maria maria 
|------------------------------------------------| 
|-15-15-15--------------------------------15-----| 
|----------14--14----------------------14--------| 
|------------------15--12-----12-14-15-----------| 
|--------------------------12--------------------| 
|------------------------------------------------| 
                                                                               

...East L.A. 
|-12-15-15--13-12----------12-12-------------| 
|-----------------15-13-15-------------------| 
|----------------------------------14-14-----| 
|--------------------------------------------| 
|--------------------------------------------| 
|--------------------------------------------| 
                                                                               
[ Tab from: http://www.guitartabs.cc/tabs/c/carlos_santana/supernatural_tab.html ]
...guitar 
|---7-10-8-7-8-7-8-7----7---------| 
|-8------------------10-----------| 
|---------------------------------| 
|---------------------------------| 
|---------------------------------| 
|---------------------------------| 
                                                                               

...Santana (electric) 
|-12-----12-13-12-------------12--12-----12-13-12-------------12--12------ 
|------------------13------13---13-----------------13------13---15-------- 
|-----------------------14------------------------------14---------------- 
|------------------------------------------------------------------------- 
|------------------------------------------------------------------------- 
|------------------------------------------------------------------------- 
                                                                               


-12-17-12-------------12-12-12-12-12-12----------| 
-----------13------13-------13-13-13-13-15-------| 
----------------14-------------------------14----| 
-------------------------------------------------| 
-------------------------------------------------| 
-------------------------------------------------| 
                                                                               

...esperanza 
|--------------------------| 
|--------------------------| 
|----------14----14-14-----| 
|-14-14-14----14-----------| 
|--------------------------| 
|--------------------------| 
                                                                               

Bridge: (classical) 
|-------------------------------------------------------------- 
|-------------------------------------------------------------- 
|----------------9-10-9-7----7-9----7----9-9------9------------ 
|---7-9-10----------------10---------10-----10-7----10--10-7--- 
|-7------------------------------------------------------------ 
|-------------------------------------------------------------- 
                                                                               


------------7-8-7---------------------------------------------------- 
------------------10------------------------------------------------- 
----------9-----------9--9--9--7----12--12--10-10-9h10p9----9-------- 
---7-9-10------------------------------------------------12---12----- 
-7------------------------------------------------------------------- 
--------------------------------------------------------------------- 
                                                                               


---------------------------7-7-8-8-10-10--12/////-----10-12-10----10---- 
-----------------10-10--10-------------------------------------13------- 
----7-9-7--7---7-------------------------------------------------------- 
-10--------------------------------------------------------------------- 
------------------------------------------------------------------------ 
------------------------------------------------------------------------ 
                                                                               

...story 
-----12----12----12-12-12-12------------------------------| 
---13----13----13------------13--13-----------------------| 
-14----14----14----------------------14-------------------| 
-----------------------------------------12----12-12------| 
--------------------------------------------15------------| 
----------------------------------------------------------| 
                                                                               

...harlem 
|-7-8-7-------------------------| 
|-------8-----------------------| 
|---------9-7h9-7----7-9-7------| 
|-----------------10------------| 
|-------------------------------| 
|-------------------------------| 
                                                                               

...movie star (electric) 
|-------12-12-------12-12-----12-12--12-12-12-12-12----------| 
|----13----------13--------13----13--13-13-13-13-13-15-------| 
|-14----------14---------14----------------------------14----| 
|------------------------------------------------------------| 
|------------------------------------------------------------| 
|------------------------------------------------------------| 


Maria maria 
|-15^--15^-15^-15^-15^r-12-15-15p12---12--------------| 
|----------------------------------15---15-13----15---| 
|-----------------------------------------------------| 
|-----------------------------------------------------| 
|-----------------------------------------------------| 
|-----------------------------------------------------| 
                                                                               

...East L.A. 
|----12-12------12-12-----12-12----12-------------| 
|-15^------15^--------15^-------15-13-13-15-------| 
|-------------------------------------------14----| 
|-------------------------------------------------| 
|-------------------------------------------------| 
|-------------------------------------------------| 
                                                                               

...guitar 
|----------------------12-------------------------------------------| 
|-------------12-13-12----15-13-12--13-12--12h13p12-----------------| 
|----------14---------------------------------------14-12-----14----| 
|-12-14-15----------------------------------------------------------| 
|-------------------------------------------------------------------| 
|-------------------------------------------------------------------| 
                                                                               

...Santana 
|-12-----13-12-------------12-----12-13-12-------------12--12---- 
|---------------13------13------------------13------13---13------ 
|--------------------14--------------------------14-------------- 
|---------------------------------------------------------------- 
|---------------------------------------------------------------- 
|---------------------------------------------------------------- 
                                                                               


-12-13-12-------------12--12-----12-17-12---------------| 
-----------13------13---15-----------------13------13---| 
----------------14------------------------------14------| 
--------------------------------------------------------| 
--------------------------------------------------------| 
--------------------------------------------------------| 



|-------12-12-------12-12--12-----------------------------------| 
|----13-------13--------------13------------------------13------| 
|-14-------------14--------------14--14--14-14-14--14-----------| 
|---------------------------------------------------------------| 
|---------------------------------------------------------------| 
|---------------------------------------------------------------| 
                                                                               


|---12-----12-13-12-------------12--12-----12-17-12----------------| 
|-*------------------13------13---15-----------------13------13--*-| 
|-------------------------14------------------------------14-------| 
|------------------------------------------------------------------| 
|-*--------------------------------------------------------------*-| 
|------------------------------------------------------------------| 


                                                                               
SONG: Corazon Espinado 
ARTIST: Santana & Mana 
ALBUM:Supernatural 
TRANSCRIBED BY:jordanlockert@yahoo.com 

Tablature explanation: 
h = hammer on 
p = pull off 
^ = bend two semitones 
b = bend one semitone 
r = release bend 
/ = slide up 
\ = slide down 
//////// = turbo pick the preceding note 
jam key= B minor 
tab by jordanlockert@yahoo.com 

one of my favorites from supernatural. Musically, this song is  
very much like smooth. Its just two semitones higher. You can take  
licks and fill from this song and put them in smooth by lowering 
them the 2 frets, or vice versa. You can even exchange solos between  
the songs. try listening to both solos, the're very similar. 

Intro 
-|----------------------------7-6-----------------------------| 
-|--------------------------7------7--------------------------| 
-|-----4h7p4---4---------/7----------9--7-9^9^--------9-6-7-9-| 
-|-4h7-------7------------------------------------------------| 
-|------------------------------------------------------------| 
-|------------------------------------------------------------| 
                                                                               


-|------7h10p7----7------------14-17^r--14-----------14------14----14-- 
-|-7h10--------10----------/15-------------17--15-17^----17^----17^---- 
-|--------------------------------------------------------------------- 
-|--------------------------------------------------------------------- 
-|--------------------------------------------------------------------- 
-|--------------------------------------------------------------------- 
                                                                               


--------------------------------| 
--17-14-15-17---15-14-14--------| 
--------------------------16----| 
--------------------------------| 
--------------------------------| 
--------------------------------| 


Esa mujer me esta matando  
Me a espinado el corazon  
-|------------------------| 
-|-10----------7----------| 
-|-9^--9p7-9-7---7--------| 
-|-----------------9------| 
-|------------------------| 
-|------------------------| 
                                                                               

Por mas que trato de olvidarla  
Mi alma no da razon  
-|-------------------| 
-|-------------------| 
-|-6-7-9---9p7p6-----| 
-|--------------9----| 
-|-------------------| 
-|-------------------| 
                                                                               

Mi corazon aplastado  
-|-5-------------------------| 
-|---8-7-5---5----7p5h7------| 
-|---------7-----------------| 
-|---------------------------| 
-|---------------------------| 
-|---------------------------| 
                                                                               

Herido y abandonado  
Aber aber 
-|--------------| 
-|--------------| 
-|---4-6-7------| 
-|-4------------| 
-|--------------| 
-|--------------| 
                                                                               

tu sabes dime mi amor por favor  
Que dolor nos quedo  

Chorus: 
Ah ah ah corazon espinado  
Ah ah ah como me duele el amor  
-|-------------------------------------------------| 
-|-10^///////-10^///////-10^--10p7---7---7---------| 
-|---------------------------------9---9---9^------| 
-|-------------------------------------------------| 
-|-------------------------------------------------| 
-|-------------------------------------------------| 
                                                                               

Como duele como duele el corazon  
Cuando nostiene entregados  
-|--------------| 
-|--------------| 
-|-6-7-9--------| 
-|--------------| 
-|--------------| 
-|--------------| 
                                                                               

Pero no olvides mujer que algun dia diras  
Hay ya yay           como me duele el amor  
-|------------------------------------------| 
-|------------------------------------------| 
-|---7-7-7------------7---7-----------------| 
-|-9^---------------9^--9^--7-9p7-----------| 
-|-------------------------------9----------| 
-|------------------------------------------| 
                                                                               

Chorus: 
Ah ah ah corazon espinado  
Ah ah ah como me duele el amor  
-|--------------------------------7-----------------------| 
-|-10^-----10--7--10-7h10p7---7-----10p7-----7------------| 
-|--------------------------9---9^-------9p7---7----------| 
-|-----------------------------------------------9--------| 
-|----this is the best I could figure this one out...-----| 
-|--------------------------------------------------------| 



-|------------------------------------------------------ 
-|-----------------------17p15-17p15-17p15-17p15-17^---- 
-|-----7---6----7-6------------------------------------- 
-|-9----------------9-9--------------------------------- 
-|------------------------------------------------------ 
-|------------------------------------------------------ 
   ah  ah  ah...   


-12----12-12------------------------------------------| 
----17^------15-17p15------15--14----15-14------------| 
-----------------------16------------------16-16----\-| 
------------------------------------------------------| 
------------------------------------------------------| 
------------------------------------------------------| 
                       ah  ah  ah...                                            
                        

-|-------------------------------2////////*-------| 
-|-------------------------------3////////*-------| 
-|------------------------------------------------| 
-|------------------------------------------------| 
-|-/9-9-9-----------------------------------------| 
-|------------------------------------------------| 
 *slide up while rapid picking                                                  
                           

-|---------------------------------------------------------- 
-|-12----------------------------14br-12-----12//////------- 
-|---------14-11----11-11----------------14^----------14p11- 
-|---------------14^---------------------------------------- 
-|---------------------------------------------------------- 
-|---------------------------------------------------------- 
  solo                                                                         


---------------------| 
---------------------| 
---------------------| 
-14^-14---12h14------| 
---------------------| 
---------------------| 
                                                                               


-|----------------------------------------------------------14///////- 
-|-12-15-15-12-15-12-15-15-12---14-17-17-14-17-14-17-17-14------------ 
-|-------------------------------------------------------------------- 
-|-------------------------------------------------------------------- 
-|-------------------------------------------------------------------- 
-|-------------------------------------------------------------------- 
                                                                               


-14t15*----14-15-14-15-14-15-14-15-17-15-14-17^-| 
------------------------------------------------| 
------------------------------------------------| 
------------------------------------------------| 
------------------------------------------------| 
------------------------------------------------| 
 *trill about maybe 8 times. Listen to song to hear it.                      



-|-17^-----17-14----14-14---- 
-|---------------17^--------- 
-|--------------------------- 
-|--------------------------- 
-|--------------------------- 
-|--------------------------- 



-17^-17^-17^rp14--14-------------14---------------|     
----------------17--17b-17p15h17---15-17--15p14---|   
-----------------------------------------------16-| 
--------------------------------------------------| 
--------------------------------------------------| 
--------------------------------------------------|                             
             



-|---------------------------------------------------------------- 
-|-15p14p12-15p14p12-15p14p12-15p14p12-15p14p12-15p14p12-15p14p12- 
-|---------------------------------------------------------------- 
-|---------------------------------------------------------------- 
-|---------------------------------------------------------------- 
-|---------------------------------------------------------------- 
                                                                               


-------------------------------------------------------| 
-17p15p14-17p15p14-17p15p14-17p15p14-17p15p14-17p15p14-| 
-------------------------------------------------------| 
-------------------------------------------------------| 
-------------------------------------------------------| 
-------------------------------------------------------| 
                                                                               



-|-2////////////*--------------------------------------------| 
-|-3////////////*--------------------------------------------| 
-|-----------------------------------------------------------| 
-|-----------------------------------------------------------| 
-|-----------------------------------------------------------| 
-|-----------------------------------------------------------|                  
  
*turbo pick and slide all the way up the fretboard                              
                     


Como me duele el olvido  
-|----------------------------------------| 
-|----------------------------------------| 
-|----------------------------------------| 
-|-14-12-11-----------11-11---------------| 
-|-----------14-12-14---------------------| 
-|----------------------------------------| 
                                                                               


Como duele el corazon  
-|---7-9---10-9-7----------------| 
-|-7----------------7------------| 
-|--------------------7----------| 
-|----------------------9-7------| 
-|-------------------------------| 
-|-------------------------------| 



Como me duele estar vivo  
-|---------------------------------------------------| 
-|---------------------------------------------------| 
-|----------------------11-12-12-11h12p11------------| 
-|-----11-14-14-11---14-------------------14--12-----| 
-|-/12------------12---------------------------------| 
-|---------------------------------------------------| 
                                                                               


Sin tenerte aun lado amor  
-|-----------------------------| 
-|-----------------------------| 
-|-----------------------------| 
-|-----------------------------| 
-|-/9-9-9-/9-9-9-/9-9-9--------| 
-|-----------------------------| 
                                                                               


Corazon espinado  
-|---------------------------------------------------------7------- 
-|-------------7-----------------------------------7--------------- 
-|-----7--9------7---------7--6----7-6--------/7-9---9---9^--9p7h9- 
-|-9---------------9-7-9---------------7---9----------------------- 
-|---------------------------------------9------------------------- 
-|----------------------------------------------------------------- 
                                                                               


----------------7----7----7-7-7-7-7-| 
-7--------------7----7----7-7-7-7-7-| 
--7--------7-9^---9^---9^-----------| 
---9p7h9----------------------------| 
------------------------------------| 
------------------------------------| 
                                                                               


-|---------------------12----------------------------------------- 
-|-17^------17-15-17^-----17^--12h15p12-12--15p12-12--15p12-12\--- 
-|---------------------------------------------------------------- 
-|---------------------------------------------------------------- 
-|---------------------------------------------------------------- 
-|---------------------------------------------------------------- 
                                                                               


---------------------------------14////////------------14- 
-14h17-17--14h17-17--14h17-17----15////////15-14-15-17---- 
---------------------------------------------------------- 
---------------------------------------------------------- 
---------------------------------------------------------- 
---------------------------------------------------------- 
                                                                               


-17p14-17p14-17p14-17^--17^-17^-17^-rp14--14----------------| 
----------------------------------------17--17^-17p15-------| 
------------------------------------------------------------| 
------------------------------------------------------------| 
------------------------------------------------------------| 
------------------------------------------------------------| 
                                                                               


-|---------------------------------------------------------------------- 
-|---------15--15-15-14----17-15-14-------------15--14-----15-14-------- 
-|-16/////--------------------------14----h16--------------------16-16-- 
-|-16/////-----------------------------16------------------------------- 
-|---------------------------------------------------------------------- 
-|---------------------------------------------------------------------- 
                                                                               


--------------------------------------------------------------------| 
----------------------12--------------------------------------------| 
----------11----------------------11-----------------11-------------| 
----12-14----14----14^---14p12h14---12---------12-12----14----12h14-| 
-14-----------------------------------14----14----------------------| 
--------------------------------------------------------------------| 
                                                                               


-|----7/////----9/////----10/////----12//-14-14----14----14----14----- 
-|-10^-------12^-------13^--------15^-----------17^---17^---17^---17^- 
-|-------------------------------------------------------------------- 
-|-------------------------------------------------------------------- 
-|-------------------------------------------------------------------- 
-|-------------------------------------------------------------------- 
                                                                               


-14-15^-----------14---------------------------------------------| 
--------17-15-17^---15------15-------15-------14h17-17-14h17-17--| 
----------------------16-16----16-16----16-16--------------------| 
-----------------------------------------------------------------| 
-----------------------------------------------------------------| 
-----------------------------------------------------------------| 




Song: Wishing It Was 
Artist: Santana & Eagle Eye Cherry 
Album:Supernatural 
Transcribed by jordanlockert@yahoo.com 

Tablature Explanation: 
h=hammer-on 
p=pull-off 
/=slide up or indicates rapid picking 
\=slide down 
b=bend half 
^=bend full 
br, ^r=bend &release 
jam key G minor 

Intro 
|-------------10---------------------------------------------- 
|-------10-11----11-10--13-11-10--11-10--10h11-10------------- 
|----12--------------------------------------------12-12------ 
|-12---------------------------------------------------------- 
|------------------------------------------------------------- 
|------------------------------------------------------------- 
                                                                               


------------------------------------------------------------| 
------------------------------------------------------------| 
------------------------------------------------------------| 
-12-12-12--14-12--14-12----------8-8-10^--10-8-10^--8-------| 
------------------------15----------------------------10----| 
------------------------------------------------------------| 
              
                                                                  
...come near 
|-----10------------------| 
|-13---------------11-----| 
|--------12-12--12--------| 
|-------------------------| 
|-------------------------| 
|-------------------------| 
          
                                                                      
...death bell rings 
|--------------| 
|-8------------| 
|---7----------| 
|-----10-8-----| 
|----------10--| 
|--------------| 
      

                                                                          
...tears in me  
|--------6-----| 
|----8-----8---| 
|-/7---7-------| 
|--------------| 
|--------------| 
|--------------| 
       
                                                                         
...life walk by... 
|-----------------------------| 
|-8---------------------------| 
|---7----------------7--------| 
|-----10-8-10-8-10^----8------| 
|------------------------10---| 
|-----------------------------| 
      
                                                                          
...wishing it was  
|---------------------| 
|-8-------------------| 
|---------------------| 
|---10^-10^-10-8------| 
|----------------10---| 
|---------------------| 
       
                                                                         
...wishing it was  
|------------------| 
|-8-6--------------| 
|-7---7-5-7--------| 
|-----------8-5----| 
|------------------| 
|------------------| 
    
                                                                            
...here before 
|---------------------| 
|-8-------------------| 
|---------------------| 
|---10^-10^-10-8------| 
|----------------10---| 
|---------------------| 
    
                                                                            
...death bell rings 
|---------------| 
|-----11-10-----| 
|-----------12--| 
|-/12-----------| 
|---------------| 
|---------------| 
     
                                                                           
...tears in me 
|------------------------------------------------| 
|-11^---11^---11^r-------------------------------| 
|------------------12----------------------------| 
|---------------------12\10----------12----------| 
|---------------------------13-10-13----13-10----| 
|------------------------------------------------| 
           
                                                                     
...everyday surprises me 
|-----13-----13-----13-13----13-13--13--13^-------13^---13^-13^-13^-13^r----- 
|-13^----13^----13^-------15------------------------------------------------- 
|---------------------------------------------------------------------------- 
|---------------------------------------------------------------------------- 
|---------------------------------------------------------------------------- 
|---------------------------------------------------------------------------- 
                                                                               


-10----10-------10---------------------------17br-15------15--15--- 
----13----11-13----13-----------11--------15------------15--18--18- 
----------------------12-12--12------------------------------------ 
------------------------------------------------------------------- 
------------------------------------------------------------------- 
------------------------------------------------------------------- 
                                                                               


--------------------------------------------------------------- 
-15h18p15--15-------------------------------------------------- 
---------17---17^r-15---15-17-15h17-15h17-17-17-17-15h17-15h17- 
----------------------17--------------------------------------- 
--------------------------------------------------------------- 
--------------------------------------------------------------- 
                                                                               


-----------------------| 
-----------------------| 
-15--------------------| 
----17-15--------------| 
---------17p15---------| 
--------------18p15\---| 
     
                                                                           
interlude 
|----------10---------------------------------------------------| 
|----10-11----11--11--10--13--11--10-10--10------11-------------| 
|-12-----------------------------------------12-----12--10-12---| 
|---------------------------------------------------------------| 
|---------------------------------------------------------------| 
|---------------------------------------------------------------| 
   
                                                                             

|------------------------------------------------------------------ 
|-----18------------18-----18-----18----18^---15h17--17p15---15-15- 
|-17^-----------17^----17^----17^----19-------------------17------- 
|------------------------------------------------------------------ 
|------------------------------------------------------------------ 
|------------------------------------------------------------------ 
                                                                               


-----------------------------------------------------10h13 -| 
-15-15-15-15----------------------8-----11--8-11--11--------| 
-15-15-15-15-17----------------------10---------------------| 
----------------17-17-17-17---------------------------------| 
------------------------------------------------------------| 
------------------------------------------------------------| 
    
                                                                            
solo 
|----------------------18^-18^--18^r-15-------15-15--18p15------- 
|---------------------------------------15-18-------------------- 
|-5^r3-----3----------------------------------------------------- 
|-----5--5------------------------------------------------------- 
|---------------------------------------------------------------- 
|---------------------------------------------------------------- 
                                                                               


--12b--------12br-12p10--10--------------------10///---10///--10///- 
-----------------------13---13^r-11----11-13^-------13^-----13^----- 
------------------------------------12------------------------------ 
-------------------------------------------------------------------- 
-------------------------------------------------------------------- 
-------------------------------------------------------------------- 
    
                                                                            

------10-13-10----10--------------------------------------15-18^--------18^--- 
--13^----------13----13^-13-11-13-----13p11--11\-------15--------------------- 
-------------------------------------------12--------------------------------- 
------------------------------------------------------------------------------ 
------------------------------------------------------------------------------ 
------------------------------------------------------------------------------ 
    
                                                                            

--15-18^--15-18^--15-18^--15-18^18^r--15h18p15------------ 
-----------------------------------------------18p15------ 
----------------------------------------------------17p15- 
---------------------------------------------------------- 
---------------------------------------------------------- 
---------------------------------------------------------- 
    
                                                                            

--------------------------------------------------------15--15----15-18-17\--- 
----15////---15///---15/////-/-/-----15----15-18-15h17---------17------------- 
-17^------17^-----17^-------------------15------------------------------------ 
------------------------------------------------------------------------------ 
------------------------------------------------------------------------------ 
------------------------------------------------------------------------------ 
                                                                               


---18-20-18-20-18-20-18-20-18-20-18-20-18-20^---///////////r-- 
-20-----p--h--p--h--p--h--p--h--p--h--p--h-------------------- 
-------------------------------------------------------------- 
-------------------------------------------------------------- 
-------------------------------------------------------------- 
-------------------------------------------------------------- 
      
                                                                          

-20-18-20^--22-18---------15------------------------------| 
------------------20--------18p15--------------15---------| 
----------------------------------18-17-15--------15------| 
-------------------------------------------17--------17---| 
----------------------------------------------------------| 
----------------------------------------------------------| 
       
                                                                         
...out the tears... 
|-------------------------------| 
|-11--10------------------------| 
|---------12-----10-12-10h12-12-| 
|-------------12----------------| 
|-------------------------------| 
|-------------------------------| 
      
                                                                          
...wishing it was  
|-----------------------------------------10--------------------------------- 
|-13^-------r-r-13--13--13--13--13-11-13^----11-13--13---------10h11p10------ 
|------------------------------------------------------12--------------12---- 
|---------------------------------------------------------------------------- 
|---------------------------------------------------------------------------- 
|---------------------------------------------------------------------------- 
                                                                               


------------------------------------------------------------------------------ 
--11p10p8-11p10p8-11p10p8-8---8----------------------------------------------- 
-------------------------------10p7--------7---------------------------3-5---- 
-----------------------------------10p8------10-8--------------------5-------- 
---------------------------------------10---------10----8h10------/5---------- 
------------------------------***********------------10----------------------- 
    


----------6-------------------------------------------------------------- 
-8--6--8--6--8/11-11/13-13-15--15-18p15h18-18-18-15-18-18-18-15h17-17-17- 
-7--7--7----------------------------------------------------------------- 
------------------------------------------------------------------------- 
------------------------------------------------------------------------- 
------------------------------------------------------------------------- 
      
                                                                          

-------15--18-15-18-15-18-15-18^-------15-18^r-----------15---- 
-18-18-------p--h--p--h--p--h------------------20-20--18----18- 
--------------------------------------------------------------- 
--------------------------------------------------------------- 
--------------------------------------------------------------- 
--------------------------------------------------------------- 
        
                                                                        

----------------------------------------| 
-15h18p15--15----------------------18---| 
---------17--17^r-15-17--17-15-17^------| 
----------------------------------------| 
----------------------------------------| 
----------------------------------------| 
                                                                               


|-------------------13-12-----12--------------------------------------------- 
|-13^r-11-----13h15--------13----15-13-15--10-13-10h11-10-------------------- 
|---------------------------------------------------------12-10-------------- 
|---------------------------------------------------------------12p10-------- 
|--------------------------------------------------------------------13p10--- 
|---------------------------------------------------------------------------- 
         
                                                                       

--------------------------| 
--------------------------| 
-------------12//////////-| 
-------12h15--------------| 
-13h15--------------------| 
--------------------------| 
         
                                                                       

------------------------------------------------------------------ 
-15////---15////---15////---15////--16---------------------------- 
-------17^------17^------17^---------------------------14///15\--- 
---------------------------------------14///15///17///------------ 
------------------------------------------------------------------ 
------------------------------------------------------------------ 
        
                                                                        

-18^18^--18^--18^--18^--15-18^18^r-15h18p15--15-15-15------------------------- 
-------------------------------------------18----------18p15---15------------- 
------------------------------------------------------------17^--17^-17p15---- 
--------------------------------------------------------------------------17-- 
------------------------------------------------------------------------------ 
------------------------------------------------------------------------------ 
                                                                               


-----------------| 
-15-15-15-15\----| 
-15-15-15-15\----| 
-----------------| 
-----------------| 
-----------------| 
                                                                               



Artist: Santana 
Title: El Farol 
Album: Supernatural 
Transcribed by: jordanlockert@yahoo.com 
Jam C major/a minor 

I worked out the fast part now, and it wasn't as difficult as I thought  
it would be. Its not that its super fast or anything, its just because  
there's so many notes in a row, it gets sort of mind numbing. For clarity, 
I've really spaced it apart more than usual. My advice for learning it would  
be to study and memorize it, and then try to play along with the song. 
For the most part, all of it follows the C major scale played at the 12 
position 
and dont forget to use one finger per fret 

Intro: Classical guitar 
|------------------------| 
|------------------------| 
|------13h14p13----------| 
|-14h15--------15p14-----| 
|------------------------| 
|------------------------| 
                                                                               


|------------------------------------------------------------| 
|------------------------------------------------------------| 
|------13h14-13h14-13h14p13----------------------------------| 
|-14h15---------------------14h15-14h15p14--12h14p12---------| 
|----------------------------------------------------15------| 
|------------------------------------------------------------| 
                                                                               


Electric 
|------------------------------------------------------------| 
|-13-----------------------13-12-----------------------------| 
|------------------------------------------------------------| 
|------------14-15-----------------------12-14---------------| 
|------------------------------------------------------------| 
|------------------------------------------------------------| 
                                                                               


|--------------------------------------------------------------------------| 
|--------------------------------------------------------------------------| 
|-14------------------------------14-13------------------------------------| 
|---------------12----------12-15--------15-14--12-----12-14-12-14---------| 
|------------15----------14-------------------------15---------------------| 
|--------------------------------------------------------------------------| 
                                                                               


|----------------------------------------------------------------------| 
|-13-----------------------13-12---------------------------------------| 
|--------------------------------------------12------------------------| 
|------------14-15------15----------------12----12-14-14-14------------| 
|----------------------------------------------------------------------| 
|----------------------------------------------------------------------| 
                                                                               


|--------------------------------------------------------------------------| 
|--------------------------------------------------------------------------| 
|-14------------------------------14-13h14p13------------------------------| 
|---------------12----------12-15--------------15-14--12-----12-14-12-14---| 
|------------15----------14-------------------------------15---------------| 
|--------------------------------------------------------------------------| 
                                                                               


|------------------------------------------------------------------------| 
|------------------------------------------------------------------------| 
|-------------------------12---------------------------------------------| 
|----14----14-12--12--15--------14--------------12-14-12--12------12-----| 
|-15----15--------------------------------12-15---------------14-----15--| 
|------------------------------------------------------------------------| 
                                                                               


|---------------------------------------------------------------------------| 
|---------------------------------------------------------------------------| 
|-------------------------12------------------------------------------------| 
|----14----14-12--14--15------14p12h14-----------12-14-12-------------------| 
|-15----15---------------------------------12-15-----------14--11-----14-12-| 
|------------------------------------------------------------------12-------| 
                                                                               


|--------------------------------------------------------------------| 
|--------------------------------------------------------------------| 
|--------------------------------------------12----------------------| 
|---------------------------12-----12-14--------15-14----------------| 
|-11-12-14--12-14-15--14-15-----15-----------------------------------| 
|--------------------------------------------------------------------| 
                                                                               


|------------------------------------------------------------| 
|-13-----------------------13-12-----------------------------| 
|------------------------------------------------------------| 
|------------14-15-----------------------12-14-14------------| 
|------------------------------------------------------------| 
|------------------------------------------------------------| 
                                                                               


|--------------------------------------------------------------------------| 
|--------------------------------------------------------------------------| 
|-14------------------------------14-13------------------------------------| 
|---------------12----------12-15--------15-14--12-----12-14-12-14---------| 
|------------15----------14-------------------------15---------------------| 
|--------------------------------------------------------------------------| 
                                                                               


|----------------------------------------------------------------------| 
|-13-----------------------13-12---------------------------------------| 
|--------------------------------------------12------------------------| 
|------------14-15------------------------12----12-14-14-14------------| 
|----------------------------------------------------------------------| 
|----------------------------------------------------------------------| 
                                                                               


|-----------------------------------------------------------------------| 
|-----------------------------------------------------------------------| 
|-14------------------------------14-13---------------------------------| 
|---------------12----------12-15--------15-12h14--12-----12-14-12-14---| 
|------------15----------14----------------------------15---------------| 
|-----------------------------------------------------------------------| 



|------------------------------------------------------------------------| 
|------------------------------------------------------------------------| 
|-------------------------12---------------------------------------------| 
|----14----14-12--12--15--------14--------------12-14-12-----------------| 
|-15----15--------------------------------12-15-----------14------14-12--| 
|-------------------------------------------------------------15---------| 



|---------------------------------------------------------------------------| 
|---------------------------------------------------------------------------| 
|-------------------------12------------------------------------------------| 
|----14----14-12--14--15------14p12h14-----------12-14-12-------------------| 
|-15----15---------------------------------12-15-----------14--11-----14-12-| 
|------------------------------------------------------------------12-------| 



|--------------------------------------------------------------- 
|--------------------------------------------------------------- 
|----------------------------12----------14--------------------- 
|-------12-14-12-------12-14----15-14-15----15-14h15p14p12h14--- 
|-12-15-------------15------------------------------------------ 
|--------------------------------------------------------------- 
                                                                               

-------------------------------| 
-------------------------------| 
-------------------------------| 
-------12-14-12----------------| 
-12-15-----------14--11-----14-| 
-------------------------12----|                                                
      
          


|-------------------------------------------------------------------| 
|----------------------------------------------------------------12-| 
|--------------------------------------------12--------------14-----| 
|---------------------------12-----12-14--------15-14-----14--------| 
|-11-12-14--12-14-15--14-15-----15----------------------------------| 
|-------------------------------------------------------------------| 



|------------------------------------------------------------| 
|-13-----------------------13-12-----------------------------| 
|------------------------------------------------------------| 
|------------14-15-----------------------12-14-14------------| 
|------------------------------------------------------------| 
|------------------------------------------------------------| 
                                                                               


|---------------------------------------------------------------------------| 
|---------------------------------------------------------------------------| 
|-14------------------------------14-13h14p13-------------------------------| 
|---------------12----------12-15--------------15-12h14--12-----12-14-12-14-| 
|------------15----------14----------------------------------15-------------| 
|---------------------------------------------------------------------------| 
                                                                               

faster part 
|-------------12--13--12--13--15--13--12--13--12--13--12--13------12------12- 
|-12--13--15--------------------------------------------------15------15----- 
|---------------------------------------------------------------------------- 
|---------------------------------------------------------------------------- 
|---------------------------------------------------------------------------- 
|---------------------------------------------------------------------------- 
                                                                               


--------------------------------------------------------------------------- 
-13--15--13p12--13--12--13--15--13--12--13--13p12-------------------------- 
---------------------------------------------------14--12------------------ 
-----------------------------------------------------------12-------------- 
---------------------------------------------------------------15--12--15-- 
--------------------------------------------------------------------------- 
                                                                               


-------------------------------------------| 
-------------------------------------------| 
--------12--12--12h14--14--12h14p12--------| 
-12h14-------------------------------------| 
-------------------------------------------| 
-------------------------------------------| 
                                                                               


|-15^--15---15------13---12-----13---12-------13--12----------12------------- 
|-----------------------------------------15----------15--13------15--13--12- 
|---------------------------------------------------------------------------- 
|---------------------------------------------------------------------------- 
|---------------------------------------------------------------------------- 
|---------------------------------------------------------------------------- 

                                                                               

--------------------------------------------------------12----------| 
-15--13--12--15--13--12--13p12--------------12--13--15--------------| 
--------------------------------14--13--14--------------------------| 
--------------------------------------------------------------------| 
--------------------------------------------------------------------| 
--------------------------------------------------------------------| 

                                                                               

|-12--17--12--17--12--17--12--19--12--19--12--19--12--20------ 
|------------------------------------------------------------- 
|------------------------------------------------------------- 
|-if you cant stretch your fingers far enough----------------- 
|-play the 12th fret E note on the B string------------------- 
|------------------------------------------------------------- 

                                                                               

-20^---20^--20^--20^--20^-r--17------17h20p17------17----------------------- 
---------------------------------20------------20------20--17--------------- 
---------------------------------------------------------------19^---19--17- 
---------------------------------------------------------------------------- 
---------------------------------------------------------------------------- 
---------------------------------------------------------------------------- 
                                                                               


-----------------17---------------------------------------------------- 
-------------17------20--17-------------------------------------------- 
-----17--19^-----------------19^-19--17------17--19--19--17---17-17---- 
-19--------------------------------------19---------------------------- 
----------------------------------------------------------------------- 
----------------------------------------------------------------------- 
  
                                                                              

----------------------------------------| 
----------------------------------------| 
----------------------------------------| 
-19--17-------------------------17------| 
---------17--------------17h19----------| 
-------------20--17--20-----------------| 
                                                                               


|-15^--15--15-----13--12------13---12--12----------------12--13--12---------- 
|--------------------------------------------15--13--15--------------15--13-- 
|---------------------------------------------------------------------------- 
|---------------------------------------------------------------------------- 
|---------------------------------------------------------------------------- 
|---------------------------------------------------------------------------- 
                                                                               


-12------------------------------------------------------------------------- 
-----15--13--12--15--13--12--13--12--13--12--13--12--13---13---12--13--15--- 
---------------------------------------------------------------------------- 
---------------------------------------------------------------------------- 
---------------------------------------------------------------------------- 
---------------------------------------------------------------------------- 
                                                                               


---------12--------12--13----12--13--12-- 
-13--15--------15------------------------ 
----------------------------------------- 
----------------------------------------- 
----------------------------------------- 
----------------------------------------- 



|-------------------------------------------------------------------| 
|-13--13--13----------------------13-12-----------------------------| 
|-------------------------------------------------------------------| 
|-----------------14-15-----------------------12-14-----------------| 
|-------------------------------------------------------------------| 
|-------------------------------------------------------------------| 
                                                                               


|----------------------------------------------------------------------- 
|----------------------------------------------------------------------- 
|-14------------------------------14-13--------------------------------- 
|---------------12----------12-15--------15-14--12-----12-14-----12-14-- 
|------------15----------14-------------------------15--------15-------- 
|----------------------------------------------------------------------- 
                                                                               


-----------------------------| 
-----------------------------| 
-----------------------------| 
----12-14-----12-14----12----|   
-15--------15-------15-------|  
-----------------------------|                                              



|----------------------------------------------------------------------- 
|----------------------------------------------------------------------- 
|-------------------12-------------------------------------------------- 
|-14--------12--14------15--14--12------12--14-------12--14--14--15--15- 
|-------15--------------------------15-----------15--------------------- 
|----------------------------------------------------------------------- 
                                                                               


---------------------------------12--15--13--12--13--12--13------12--------- 
-----------------12--12--13--15------------------------------15------15--13- 
-12--12--14--14------------------------------------------------------------- 
---------------------------------------------------------------------------- 
---------------------------------------------------------------------------- 
---------------------------------------------------------------------------- 
                                                                               


-------------12------| 
-12--13--15----------| 
---------------------| 
---------------------| 
---------------------| 
---------------------| 
                                                                               


|-12--17--17---17---19---20--19h20-------20^--20^---20^---20^----20^----20^-- 
|---------------------------------------------------------------------------- 
|---------------------------------------------------------------------------- 
|---------------------------------------------------------------------------- 
|---------------------------------------------------------------------------- 
|---------------------------------------------------------------------------- 
                                                                               


-20^----20^--20^-r---20--17--------------------------------------------- 
-----------------------------20--17-----------------------------17--17-- 
-------------------------------------19^---19--17------17--19^---------- 
---------------------------------------------------19------------------- 
------------------------------------------------------------------------ 
------------------------------------------------------------------------ 
                                                                               


--------------------------------------------------------| 
----17-17-17----17-17-17----17-17-17----17-17-17b*------| 
-19^---------19^---------19^---------19^----------------| 
--------------------------------------------------------| 
--------------------------------------------------------| 
--------------------------------------------------------| 
* bend three semitones (to 20)                                                  
                             


|-------------------------15--13--12--13--13p12------12--------------12------ 
|-15--13--15--13--15--13-------------------------15------15--13--15------15-- 
|---------------------------------------------------------------------------- 
|---------------------------------------------------------------------------- 
|---------------------------------------------------------------------------- 
|---------------------------------------------------------------------------- 
                                                                               


--------------------| 
-13--12h13p12-------| 
--------------------| 
--------------------| 
--------------------| 
--------------------| 
                                                                               


|------------------------------------------------------------------------| 
|--15--13--12--13--12----------------------------------------------------| 
|----------------------14--12------------------------12--12--12-12--12---| 
|------------------------------12--------------12h14---------------------| 
|----------------------------------15--12--15----------------------------| 
|------------------------------------------------------------------------| 
                                                                               


|-15h17--15--15-----------------13--12--12---------------------12---------- 
|-----------------18--17---------------------15--15----13--15------15--13-- 
|-------------------------------------------------------------------------- 
|-------------------------------------------------------------------------- 
|-------------------------------------------------------------------------- 
|-------------------------------------------------------------------------- 
                                                                               


-----12--15--13--12--------------12------------------------------------------- 
-15------------------15--13--15------15--13--12--13--12--13----12---12-------- 
-------------------------------------------------------------------------14--- 
------------------------------------------------------------------------------ 
------------------------------------------------------------------------------ 
------------------------------------------------------------------------------ 
                                                                               


------------------------------------------------------15-------12--12--12--12- 
---------------12--13----------13h15-------15-----15------15------------------ 
--14-------14----------------------------------------------------------------- 
-------14--------------------------------------------------------------------- 
------------------------------------------------------------------------------ 
------------------------------------------------------------------------------ 
                                                                               


|-17--12------12-------------------------------- 
|---------15------15----20--15------15---------- 
|-------------------------------17------17------ 
|----------------------------------------------- 
|----------------------------------------------- 
|-----------------------------------------------faded out 
                                                                               



Song: Primavera 
Artist: Santana 
Album:Supernatural 
Transcribed by jordanlockert@yahoo.com 

Tablature Explanation: 
h=hammer-on 
p=pull-off 
/=slide up or indicates rapid picking 
\=slide down 
b=bend half 
^=bend full 
br, ^r=bend &release 
jam key G minor 

Whew! Well this one took a while. I think its the most  
tab for any song ive ever done. 


Intro 
|-----------------------------------------------| 
|-8-------------------8-------------------------| 
|-----7-------------7---7-7h8p7-----------------| 
|---------10---8-10-------------10-8-10^r^r-----| 
|-----------------------------------------------| 
|-----------------------------------------------| 
                                                                               


|---------------------------------------8--------| 
|-8----------------------8--10-10-11-11---10-----| 
|-----7---8p7----------7-------------------------| 
|------------10---8-10---------------------------| 
|------------------------------------------------| 
|------------------------------------------------| 
                                                                               

...la semilla 
|-6----------| 
|---8-8-8----| 
|------------| 
|------------| 
|------------| 
|------------| 
  
                                                                              
...esta primavera 
|-10--------------| 
|----8-8-8---11---| 
|-----------------| 
|-----------------| 
|-----------------| 
|-----------------| 

                                                                               
...nueva era 
|-------------------------10----------------------------- 
|-13^-13^-------13-11-13^----11-------11----------------- 
|-------------------------------12-12--------7-6-5------- 
|-------------------------------------------------8p5---- 
|-------------------------------------------------------- 
|-------------------------------------------------------- 
                                                                               


-------------------------------------------------------------------- 
-------11---------11-----------11^--11h13-13--11h13-13--11h13-13---- 
--10h12--12-12-12---------10-12------------------------------------- 
-------------------------------------------------------------------- 
-------------------------------------------------------------------- 
-------------------------------------------------------------------- 
                                                                               


-10//////-13^-13^----| 
---------------------| 
---------------------| 
---------------------| 
---------------------| 
---------------------| 
                                                                               
... 
... 
... 
... 
...tierra negra 
|-----------------------| 
|-----------------------| 
|-----------------------| 
|-10p8---8-8------------| 
|-----10-----10p8h10----| 
|-----------------------| 
     
                                                                           
...vuelve verde 
|-15-15-15-15-15-15-15-15------| 
|------------------------------| 
|------------------------------| 
|------------------------------| 
|------------------------------| 
|-fade-in----------------------| 
           
                                                                     
...montanas y el de... 
|---------15-----15----15---15----15-15-15-15-15-15-15\----| 
|-18^-18^----18^----18^--18^--18^-15-15-15-15-15-15-15\----| 
|----------------------------------------------------------| 
|----------------------------------------------------------| 
|----------------------------------------------------------| 
|----------------------------------------------------------| 
          
                                                                      
...la semilla 
|-------------------| 
|-11h13-11----------| 
|----------12-12----| 
|-------------------| 
|-------------------| 
|-------------------| 
        
                                                                        
...esta primavera 
|-10----------------------------| 
|----13-13--11-13p11------11----| 
|-------------------12-12-------| 
|-------------------------------| 
|-------------------------------| 
|-------------------------------| 
      
                                                                          
...nueva era 
|-13-11-10b-10------------| 
|--------------11---------| 
|-----------------12-12---| 
|-------------------------| 
|-------------------------| 
|-------------------------| 
      
                                                                          
...la semilla 
|-10------------------------| 
|----13-13-11-10-------11---| 
|----------------12-12------| 
|---------------------------| 
|---------------------------| 
|---------------------------| 
         
                                                                       
...esta primavera 
|----------------------| 
|----11-10-------11----| 
|----------12-12-------| 
|-/12------------------| 
|----------------------| 
|----------------------| 
       
                                                                         
...nueva era 
|-15-15-15-15-15-------------------| 
|-15-15-15-15-15-15p13-------------| 
|---------------------15-12-12-12--| 
|----------------------------------| 
|----------------------------------| 
|----------------------------------| 


...aire de 
|----------| 
|----------| 
|-8-7-5-5--| 
|----------| 
|----------| 
          
                                                                      
...nuevo universo 
|-------------------| 
|-------------------| 
|-------------------| 
|---5-7-8-7-7-5-5---| 
|-5-----------------| 
|-------------------| 
      
                                                                          
...tierra negra 
|-10--------10-----------| 
|-11--11-13----11--------| 
|-----------------12-12--| 
|------------------------| 
|------------------------| 
|------------------------| 
      
                                                                          
...vuelve verde 
|-10-11-10-11-10-11-10-11-10----| 
|---h--p--h--p--h--p--h--p------| 
|-------------------------------| 
|-------------------------------| 
|-------------------------------| 
|-------------------------------| 
     
                                                                           
...montanas 
|-10-10-------10------------15-15----15-15-------15-15-15------------| 
|-11-11-------11------------15-15----15-15----15-15-15-15------------| 
|-------12-------12------17^------17^------17^------------17^r15-----| 
|---------------------------------------------------------------17---| 
|--------------------------------------------------------------------| 
|--------------------------------------------------------------------| 
      
                                                                          
...la semilla 
|-13-12-11-10--------------| 
|------------11-------11---| 
|--------------12-12-------| 
|--------------------------| 
|--------------------------| 
|--------------------------| 
    
                                                                            
...esta primavera 
|---------------------------------| 
|-13^r-11-13-13-11h13-11--13------| 
|---------------------------------| 
|---------------------------------| 
|---------------------------------| 
|---------------------------------| 
        
                                                                        
...nueva era 
|-15---15---15-------------| 
|-15---15---15---15--------| 
|---17^-------17^--15------| 
|--------------------17----| 
|--------------------------| 
|--------------------------| 
      
                                                                          
...la semilla 
|-15--------------| 
|-15--------------| 
|----12-12-12-----| 
|-----------------| 
|-----------------| 
|-----------------| 
       
                                                                         
...Lleva nueva vida 
|-13p11p10----10----10--------------| 
|----------13^---13^--11----11------| 
|-----------------------12----------| 
|-----------------------------------| 
|-----------------------------------| 
|-----------------------------------| 
           
                                                                     
...esta primavera 
|-11-10-13-11-10----10-----------------| 
|----------------13----13^-13^-13^-----| 
|--------------------------------------| 
|--------------------------------------| 
|--------------------------------------| 
|--------------------------------------| 
          
                                                                      
solo 
|-----------------------15----15-18-17-15-15--- 
|-18^18^-----18^----18^----18^----------------- 
|---------------------------------------------- 
|---------------------------------------------- 
|---------------------------------------------- 
|---------------------------------------------- 
                                                                               


-18p15--15-------------------------------------------| 
------18---------------------------------------------| 
----------17^-17p15---15-17-17^-15-17^--17p15--------| 
-------------------17------------------------17------| 
-----------------------------------------------------| 
-----------------------------------------------------| 
                                                                               

|-20^-18-20-----18-------------18p17p15-18p17p15-18p17p15-18p17p15- 
|------------20-----17-20\----------------------------------------- 
|------------------------------------------------------------------ 
|------------------------------------------------------------------ 
|------------------------------------------------------------------ 
|------------------------------------------------------------------ 
        
                                                                        

-18p17p15-18p17p15-18p17p15-18^///////18^r-15h18p15----15-----15--------- 
----------------------------------------------------18^-----15--18p15---- 
---------------------------------------------------------------------17^- 
------------------------------------------------------------------------- 
------------------------------------------------------------------------- 
------------------------------------------------------------------------- 
                                                                               


-----------------------------------------| 
-----------------15-------------15-------| 
-17-15----15-17^----17^r-15-------15-----| 
-------17-------------------17-------17--| 
-----------------------------------------| 
-----------------------------------------| 
                                                                               


|----------------------------------15---15--------------------------- 
|-15-15-17--15-15-17-15-15-17------15---15-----15/////17/////18/////- 
|-15-15-17--15-15-17-15-15-17-17^----17^---17^-15/////17/////-------- 
|-------------------------------------------------------------------- 
|-------------------------------------------------------------------- 
|-------------------------------------------------------------------- 
                                                                               


-------------------| 
-------------------| 
-12//14//15//17----| 
-------------------| 
-------------------| 
-------------------| 
                                                                               


|-----------------------------------------------10-13p10--10-----------| 
|-13^----13^-13^-13^-13^-13^-13^--13-13-13-11-13^-------13--13^13p11---| 
|-------------------------------------------------------------------12-| 
|----------------------------------------------------------------------| 
|----------------------------------------------------------------------| 
|----------------------------------------------------------------------| 
                                                                               


|---18-20-18-20-20-18-20-20-18-20-20-18-20-20-18-20-18----20^//////////- 
|-20-------------------------------------------------------------------- 
|----------------------------------------------------------------------- 
|----------------------------------------------------------------------- 
|----------------------------------------------------------------------- 
|----------------------------------------------------------------------- 
     
                                                                           

-/--/--/------3///-----------| 
-----------11\3///-----------| 
-----------------------------| 
-----------------------------| 
-----------------------------| 
-----------------------------| 
     
                                                                           
...tierra negra 
|----------------------------| 
|----------------------------| 
|----------------------------| 
|-10--8-10-10--10-8----------| 
|-------------------10-10----| 
|----------------------------| 
           
                                                                     
...vuelve verde 
|-------------------------------------------------| 
|-------------------------------------------------| 
|-15--14--12-------12-----------------------------| 
|------------15-12----15-12h15p12--12-------------| 
|--------------------------------15---15p13-------| 
|-------------------------------------------15----| 
        
                                                                        
...montanas 
|--------------------| 
|-11-10h11p10--------| 
|-------------12-12--| 
|--------------------| 
|--------------------| 
|--------------------| 
      
                                                                          
...bello jardin 
|-13^-13^-13^-13^----------| 
|-----------------11---\---| 
|--------------------------| 
|--------------------------| 
|--------------------------| 
|--------------------------| 
           
                                                                     
...la semilla 
|----------------| 
|----------------| 
|----------------| 
|-10^r8-----8----| 
|-------10-------| 
|----------------| 
         
                                                                       
...Lleva nueva vida 
|-------------------------| 
|-------------------------| 
|-7-6-5-7p5---7p5---------| 
|----------8p5---8p5-5-5--| 
|-------------------------| 
|-------------------------| 
       
                                                                         
...esta primavera 
|-15----------------------------| 
|-15-15-------------------------| 
|-------17-15-17p15-------15----| 
|-------------------17-17-------| 
|-------------------------------| 
|-------------------------------| 
        
                                                                        
...nueva era 
|--------------------------------| 
|----------------13-11-----------| 
|----------10-12-------12-12-----| 
|-10-11-12-----------------------| 
|--------------------------------| 
|--------------------------------| 
       
                                                                         
...la semilla 
|-----15-15-18----| 
|-/17-------------| 
|-----------------| 
|-----------------| 
|-----------------| 
|-----------------| 
         
                                                                       
...Lleva nueva vida 
|-18^--------------18^--18^--18-15h18p15--18-------15-15--- 
|---------------------------------------15-------17-------- 
|---------------------------------------------------------- 
|---------------------------------------------------------- 
|---------------------------------------------------------- 
|---------------------------------------------------------- 
                                                                               


---18---15--------15----------------------------------------------- 
-17---17--------18--------------15////////---15/////////---15/////- 
--------------------17^r15---17^----------17^-----------17^-------- 
--------------------------17--------------------------------------- 
------------------------------------------------------------------- 
------------------------------------------------------------------- 
                                                                               


-------17-18-17-15-----15-15-------15-----18^r-15-15-------------------------- 
-15-15-----------------------15h17-------------------------------------------- 
----------------------------------------------------------17^17-15-17--15----- 
------------------------------------------------------------------------------ 
------------------------------------------------------------------------------ 
------------------------------------------------------------------------------ 
        
                                                                        

----17-18-17-15-------15-------15-----18^////18^/////18^r- 
-15----------------------15-17---------------------------- 
---------------------------------------------------------- 
---------------------------------------------------------- 
---------------------------------------------------------- 
---------------------------------------------------------- 
       
                                                                         

---15--15------15--------------| 
-18--18------15--18p15---------| 
---------17^----------15-------| 
------------------------17-----| 
-------------------------------| 
-------------------------------| 
                                                                               


--17-18-17-15-15------------15-----18^r-15------------------------------------ 
----------------------15-17------------------18p15----15------15-------------- 
--------------------------------------------------17^---15------18p17p15------ 
----------------------------------------------------------17------------17---- 
------------------------------------------------------------------------------ 
------------------------------------------------------------------------------ 
       
                                                                         

|----15-17-18-17-15------------------------18^r-15-15----- 
|-----------------------18-18-15h17-15-------------------- 
|-17^----------------------------------------------------- 
|--------------------------------------------------------- 
|--------------------------------------------------------- 
|--------------------------------------------------------- 
                                                                               

-15-----------------------17-18-17-15----------------------------------------- 
----15-----------15-15-15-----------------18ph20p18--17h18p17--15h17p15----15- 
-------17-15-17^--------------------------------------------------------17---- 
------------------------------------------------------------------------------ 
------------------------------------------------------------------------------ 
------------------------------------------------------------------------------ 
                                                                               


--------------------------------------------------------15----15-15-----15---- 
------------------------18p15---15///---15///////////------18^------18^------- 
-18p17p15---17p15------------17^-----17^-------------17^---------------------- 
---------17------17\---------------------------------------------------------- 
------------------------------------------------------------------------------ 
------------------------------------------------------------------------------ 
          
                                                                      

------18p15---------------------------------------------------------------| 
-18^--------18p15--15----------15-----------------------------------------| 
-----------------17--17p15-----15--------15-14----------------------------| 
--------------------------17------17-17--------17p15----------------------| 
----------------------------------------------------17p15-----15^----15---| 
---------------------------------------------------------15h18----18------| 
         
                                                                       

|------------------------10--------17-18-17-15---20^20^--20^20^--20^20^--20^- 
|-/10-11-10--------11-13----13----------------------------------------------- 
|-----------12--------------------------------------------------------------- 
|---------------------------------------------------------------------------- 
|---------------------------------------------------------------------------- 
|---------------------------------------------------------------------------- 
          
                                                                      

|-20^-20^-20^-20^---20^----18p15-15-15------------------------------- 
|-----------------------------------------17-17-16-16-15-15-14-14-14- 
|-------------------------------------------------------------------- 
|-------------------------------------------------------------------- 
|-------------------------------------------------------------------- 
|-------------------------------------------------------------------- 
                                                                               


-17-18-17-15-----15-------15-----18^r-15-15------------------------------ 
--------------------15-17-----------------------13brbr--13brbr-11-13brbr- 
------------------------------------------------------------------------- 
------------------------------------------------------------------------- 
------------------------------------------------------------------------- 
------------------------------------------------------------------------- 
      
                                                                          

---------------------------------------------------------------- 
-11-13-11h13p11--13p11p10--11p10-------------6----8-8-11---8-11- 
--------------------------------12p10-----/7---/9--------------- 
-------------------------------------12\------------------------ 
---------------------------------------------------------------- 
---------------------------------------------------------------- 
      
                                                                          

-------------------| 
-10/////11/////13\-| 
-------------------| 
-------------------| 
-------------------| 
-------------------| 
                                                                               


|-------------------------------------------------------------------- 
|-15-15---15-15---15-15--15////////////////17//////////////18\------- 
|----------------------------------------------------------19\------- 
|-------------------------------------------------------------------- 
|-------------------------------------------------------------------- 
|-------------------------------------------------------------------- 
          
                                                                      

|-17br-15-----15------------------------------------------------------------- 
|----------18----17-15-15h17p15----15---------------------15//-15//---------- 
|-------------------------------17----17-15----17p15---------------17p15----- 
|-------------------------------------------17------17\-----------------17--- 
|---------------------------------------------------------------------------- 
|---------------------------------------------------------------------------- 
         
                                                                       

------------------15---15---15---------------| 
-15//----------13^--13^--13^------15^--------| 
-----17p15-----------------------------------| 
----------17---------------------------------| 
---------------------------------------------| 
---------------------------------------------|inaudible 
                                                                               




Artist: Santana 
Title: Bonus Track 
Album: Supernatural 
Transcribed by: jordanlockert@yahoo.com 

tablature explanation: 
h=hammer-on 
p=pull-off 
^=bend full 
r=release bend 
/////// indicates rapid picking 
jam key = D minor 

This is a cool sounding introduction. I wish I knew how to  
play more stuff like it. 


Intro: classical guitar 
|------------------------------------------------------| 
|------------------------------------------------------| 
|------------------------------------------------------| 
|---0-2-3---------2-2-2-----------2-3-2-2h3p2----------| 
|-0-----------0-------------0-4-5------------4h5-------| 
|---------------4--------------------------------------| 
                                                                               


|----------------------------------------------------------| 
|----------------------------------------------------------| 
|----------------------------------------------------------| 
|-0-2-3---2-3-2-3-5-2h3p2-2----0-2-3---2-3-2-3-5-2h3p2-2---| 
|------------------------5----------------------------5----| 
|----------------------------------------------------------| 
                                                                               


|-----------------------------------0-3-0---3-3-1-1--1-------| 
|-------------------------------3-2-------2----------3-------| 
|-----------------2-3---2-3-2-3----------------------2-------| 
|-2-3-5---4-5-4-5--------------------------------------------| 
|------------------------------------------------------------| 
|------------------------------------------------------------| 
                                                                               


|-----5-5-----5-5-----------| 
|---6-----6-------6---------| 
|-7---------7-------7-7-----| 
|---------------------------| 
|---------------------------| 
|---------------------------| 
                                                                               


|----5-8-6--5-6--5h6p5-8-------------------------| 
|-6-8-----------------8--8-8-8-6-8-6-5-6-5-------| 
|------------------------------------------7-7---| 
|------------------------------------------------| 
|------------------------------------------------| 
|------------------------------------------------| 
                                                                               


|-----------| 
|-----------| 
|---7-9-10--| 
|-7---------| 
|-----------| 
|-----------| 
                                                                               


|--------------------------------| 
|--------------------------------| 
|----9-10-12-10-9-10-12--10-12---| 
|-12-----p--p--p-h--h------------| 
|-12-----------------------------| 
|--------------------------------|                                              
                   
             


|----------| 
|-10-8-10--| 
|----------| 
|----------| 
|----------| 
|----------| 
                                                                               


|-----------------------10------------------------------------------| 
|-10-10-10-11-13-13--13----13-11-10-11-10h11p10--10-------10--------| 
|----------------------------------------------12---12-12----12-12--| 
|-------------------------------------------------------------------| 
|-------------------------------------------------------------------| 
|-------------------------------------------------------------------| 
                                                                              


|------------------------10--- 
|----8---------8-8-10-10------ 
|-10---10-9-10---------------- 
|----------------------------- 
|----------------------------- 
|----------------------------- 



-10///12///13//////15//////17/////////18///17////15//13//---| 
------------------------------------------------------------| 
------------------------------------------------------------| 
------------------------------------------------------------| 
------------------------------------------------------------| 
------------------------------------------------------------| 
                                                                               


Electric 
|------------------------------------------------------------10----- 
|*-10-10----10----------10-13-10-----10-10----10----------10---10--- 
|--10-10----10-12-10-12-10-----------10-10----10-12-10-12-10-------- 
|------------------------------------------------------------------- 
|*------------------------------------------------------------------ 
|------------------------------------------------------------------- 
                                                                               


-------------------------------10-------| 
-10-10----10----------10-11-13---10----*| 
-10-10----10-12-10-12-10-----------12---| 
----------------------------------------| 
---------------------------------------*| 
----------------------------------------| 
                                                                               

im not sure if this is played on piano or guitar  
or somethiing else, but here it is anyway 
|--------------------------------------5------| 
|---5-6----------6--------8-6--------8---6----| 
|-7-------------------------------------------| 
|--------------7------------------------------| 
|---------------------------------------------| 
|---------------------------------------------| 
                                                                               


|-----5--------6-5------------5------555-6-5-----5-----| 
|-6-8---------------------6-8----------------6----8----| 
|----------------------------------------------7-------| 
|------------------------------------------------------| 
|------------------------------------------------------| 
|------------------------------------------------------| 
                                                                               


back to guitar 
|--------------------------------------| 
|--------8---10---8-8-6---8-8-8^r------| 
|-7-10-7---7----7-------7---7----10p7--| 
|--------------------------------------| 
|--------------------------------------| 
|--------------------------------------| 
                                                                               


|-----------13-------------------13--| 
|-/15-15-15-----/-15-15-15-15-15-----| 
|------------------------------------| 
|------------------------------------| 
|------------------------------------| 
|------------------------------------| 
                                                                               


|-13^///////////13^-13^--13^r10---| 
|---------------------------------| 
|---------------------------------| 
|---------------------------------| 
|---------------------------------| 
|---------------------------------| 
                                                                               


|-18p17-17-17--18p17-17-17-------------| 
|--------------------------18-18\------| 
|--------------------------------------| 
|--------------------------------------| 
|--------------------------------------| 
|--------------------------------------| 
                                                                               


|-----15--17-15-17-----------18-17---------------15--17-15-17--- 
|-18-----------------------------------------18----------------- 
|--------------------------------------------------------------- 
|--------------------------------------------------------------- 
|--------------------------------------------------------------- 
|--------------------------------------------------------------- 
                                                                               


-17-17-18-17-------17-15-------13-13-13-13-13----------| 
-------------18-15----------------------------15\------| 
-------------------------------------------------------| 
-------------------------------------------------------| 
-------------------------------------------------------| 
-------------------------------------------------------| 



freedom 
freedom 
freedom 
|-10----------------------| 
|-10-13-10----------------| 
|---------/12-12-10-12----| 
|-------------------------| 
|-------------------------| 
|-------------------------| 
                                                                               


...get up 
|---------| 
|---6-----| 
|-7---7---| 
|---------| 
|---------| 
|---------| 
                                                                               


...stand up 
|-------------| 
|---8^r6------| 
|-7------7----| 
|-------------| 
|-------------| 
|-------------| 
                                                                               


...celebrate 
|--------------------------------5------| 
|-6-------10---8---6---8^r6--6-8--6-----| 
|---7-7-7----7---7---7-----7-------7----| 
|---------------------------------------| 
|---------------------------------------| 
|---------------------------------------| 
                                                                               


freedom 
|-------------13----| 
|-13h15-15-15-------| 
|-------------------| 
|-------------------| 
|-------------------| 
|-------------------| 
                                                                               


...about freedom 
|-10--------------------------------------| 
|-10-13-10-------------10-----------------| 
|---------/12-12-10-12--------------------| 
|----------------------------12-12p10-----| 
|------------------------------------12---| 
|-----------------------------------------| 
                                                                               


...redemption 
|----------------------------10p8-----------------| 
|--------8---10---8--------8-----10p8----8--------| 
|-7-10-7---7----7---7-10-7-----------10p7-10p7----| 
|-------------------------------------------------| 
|-------------------------------------------------| 
|-------------------------------------------------| 
                                                                               


freedom 
|--------------13--| 
|-13^-------/15----| 
|------------------| 
|------------------| 
|------------------| 
|------------------| 
                                                                               


...don't you  
want freedom 
|-15^------13-15----13-13-h15---| 
|----------------15-------------| 
|-------------------------------| 
|-------------------------------| 
|-------------------------------| 
|-------------------------------| 
                                                                               


...liberation 
|-18-17-18-17-18-17-18-17-18-17-18-17---17---------------------| 
|---p--h--p--h--p--h--p--h--p--h--p-----18-18-18-18------------| 
|------------------------------------------17-17-17-19-19-19\--| 
|--------------------------------------------------------------| 
|--------------------------------------------------------------| 
|--------------------------------------------------------------| 
                                                                               


freedom 
|--------| 
|-13^----| 
|--------| 
|--------| 
|--------| 
|--------| 



...don't you  
want freedom 
|-13^--13^--13^-13^-13^r10--10101010-13---| 
|-------------------------13--------------| 
|-----------------------------------------| 
|-----------------------------------------| 
|-----------------------------------------| 
|-----------------------------------------| 
                                                                              


...celebration 
|-10-------10-------------------------------| 
|-10-13-10----13-10-13-13p10----------------| 
|---------------------------12-12ph12-------| 
|------------------------------------/12----| 
|-------------------------------------------| 
|-------------------------------------------| 
                                                                               


...lets celebrate 
|--------------------| 
|-------------6------| 
|---5-55-55-----7----| 
|-7---------7--------| 
|--------------------| 
|--------------------| 
                                                                               


...lets celebrate 
|-10-------10---------------------------------| 
|-10-13-10----13-10h13p10---------------------| 
|------------------------12p10-12p10--10h12---| 
|-----------------------------------12--------| 
|---------------------------------------------| 
|---------------------------------------------| 
                                                                               


...gonna celebrate 
|-10-----------------------| 
|----8^r^r^r^r---6h8-------| 
|-------------------7------| 
|--------------------------| 
|--------------------------| 
|--------------------------| 
                                                                               


...celebrate 
|-------------------------------| 
|-8^r^r^r---8^r6-8^r6-----------| 
|---------------7----7-5-7------| 
|-------------------------------| 
|-------------------------------| 
|-------------------------------| 
                                                                               


Oh yeah 
|---5-------5-------------------| 
|-----8---6---8---6p5----6------| 
|-7------------------7-7--------| 
|-------------------------------| 
|-------------------------------| 
|-------------------------------| 
                                                                               


|-10-----------------------------| 
|---10------10-------------------| 
|-----12--10--12--10p9---10------| 
|----------------------12--12----| 
|--------------------------------| 
|--------------------------------| 
                                                                               


|-10-------------------------------10h13p10---------| 
|---10------10----------------10h13--------13p10----| 
|-----12--10--12-----10--10h12----------------------| 
|------------------12--12---------------------------| 
|------------------------------not-sure-about-this--| 
|---------------------------------------------------| 
                                                                              


|---------------------------------------10---------------------------- 
|-----6---8---8^--8--6-8-8p6----6---8--------8p6-8-8p6----6---8---10-- 
|-7-------------------------7-------------------7-----7--------------- 
|--------------------------------------------------------------------- 
|--------------------------------------------------------------------- 
|--------------------------------------------------------------------- 
                                                                               


-------------------------------10/////----------------| 
--10h11p10h11p10-10/////11/////-----------------------| 
--------------------------------------9/////10////----| 
------------------------------------------------------| 
------------------------------------------------------| 
------------------------------------------------------| 
                                                                               


|-17-----18-15h17-15----15-17-15-17-----18-15h17-15----15-17-15-17--- 
|--------------------18-----------------------------18--------------- 
|-------------------------------------------------------------------- 
|-------------------------------------------------------------------- 
|-------------------------------------------------------------------- 
|-------------------------------------------------------------------- 
                                                                               


--18-15h17-15---15-17--17------------20^--17-20^--17-20^--17-20^--- 
--------------18---------18-18-18-18------------------------------- 
-------------------------19-19-19-19------------------------------- 
------------------------------------------------------------------- 
------------------------------------------------------------------- 
------------------------------------------------------------------- 
now there's some weird effects and noise that play as it fades out
Comments