Carlos Santana - Stormy Chords & Tabs

 

Stormy Chords & Tabs

Carlos Santana Chords & Tabs

Version: 1 Type: Tab 0 ratings
1 star 2 stars 3 stars 4 stars 5 stars
comments

Stormy Tab

   
Song Title:Stormy
Artist/Band:Santana
Album:Inner Secrets 1978, The Best of Santana vol II, The Essential Santana disc 2.

Tab by JC Rea(jcrp_21@hotmail.com)--

Symbols:

h=hammer-on
p=pull-off
~=left hand vibrato
b=bend
r=release bend
[]=bend before picking

INTRO:
e|-----------------|
B|-6h8-10----------|----> This is a slow hammer-on
G|--------7h9p7h9--|
D|-----------------|
A|-----------------|
E|-----------------|

e|------------------------------------------------------------|
B|-10b12r10--8h10p8------8-8------------8-12p10--8---10p8-----|
G|--------------------9-------7h9--5h7-------------9-------9--|
D|------------------------------------------------------------|
A|------------------------------------------------------------|
E|------------------------------------------------------------|

e|-----------------|
B|-8-12-8----------|
G|--------7h9p7h9--|
D|-----------------|
A|-----------------|
E|-----------------|

e|--------------------------[10]b12r11b12~~~---10p7--|
B|-10b12r10---8h10p8----8----------------------------|
G|-------------------9-------------------------------|
D|---------------------------------------------------|
A|---------------------------------------------------|
E|---------------------------------------------------|


CHORDS FOR VERSE PARTS:

Am:577555
DMaj:x00232
CMaj:335553
B7:021202

CHORDS FOR CHORUS:

Bm:7799777
AMaj:5776555
 

1st VERSE:

Am            DMaj          Am            DMaj   
 You are the sunshine, baby, whenever you smile
Am              DMaj        CMaj 
 But I call you Stormy today
Am         DMaj          Am       DMaj
 All of a sudden that ol' rain is fallin' down
Am               DMaj           CMaj 
 And my world is cloudy and gray
            B7
 You've gone away

CHORUS:

    Bm      AMaj
Old Stormy Stormy
    Bm      AMaj 
Old Stormy Stormy
    Bm      AMaj
Old Stormy Stormy
    Bm      AMaj 
Old Stormy Stormy

2nd VERSE:----->Same chords and ryhtm than those for 1st verse

Yesterday's love was alive, the warm summer breeze
But like the weather you changed 
e|----10-10----10h12-10--------|
B|-12-------12----------10-10--|
G|-----------------------------|
D|-----------------------------|
A|-----------------------------|
E|-----------------------------|
Now things are dreary, baby, windy and cold
And I stand alone in the rain
Callin' out your name

CHORUS:--->Just as the 1st one
Stormy Stormy
e|-----------|
B|-10b12-----|------->Slow bend
G|-----------|
D|-----------|
A|-----------|
E|-----------|
Stormy Stormy
Come back to me Stormy
|-------10b12--|-------->Slow bend
|--------------|
|--------------|
|--------------|
|--------------|
Stormy Stormy

Bring back that sunny day

1st SOLO:
e|-[18]b19r18---17---17p15---18h19p17\15-----|
B|---------------------------------------17--|
G|-------------------------------------------|
D|-------------------------------------------|
A|-------------------------------------------|
E|-------------------------------------------|

e|-15b17r15--15b17r15--15b17r15--15b17r15--12h15p12----12-------12-------|
B|--------------------------------------------------15----15b17----15b17-|
G|-----------------------------------------------------------------------|
D|-----------------------------------------------------------------------|
A|-----------------------------------------------------------------------|
E|-----------------------------------------------------------------------|

3rd VERSE:
Yesterday's love was alive, the warm summer breeze
But like the weather you changed
e|----10-10-----10h12--10--------|
B|-12-------12------------10-10--|
G|-------------------------------|
D|-------------------------------|
A|-------------------------------|
E|-------------------------------|
Everything is now are dreary, baby, windy and cold
And I stand alone in the rain
Callin' out your name


Whoa! Stormy
Stormy, come back to me Stormy
e|-----------|
B|-10b12-----|------->Slow bend
G|-----------|
D|-----------|
A|-----------|
E|-----------|
Stormy, come back to me Stormy
Come on home! Stormy
|-------10b12--|-------->Slow bend
|--------------|
|--------------|
|--------------|
|--------------|
Bring back that sunny day

FINAL SOLO:
e|------------|
B|-8--10------|
G|-------7h9--|
D|------------|
A|------------|
E|------------|

e|----10-12-10---15b17--15p12--|
B|-12--------------------------|
G|-----------------------------|
D|-----------------------------|
A|-----------------------------|
E|-----------------------------|
[ Tab from: http://www.guitartabs.cc/tabs/c/carlos_santana/stormy_tab.html ]
e|-----------|
B|-8~~~------|
G|------7h9--|
D|-----------|
A|-----------|
E|-----------|

e|-------10-------10-------10-------10------------------|
B|-10h12----10h12----10h12----10h12----10p8---8h10------|
G|------------------------------------------9-------12--|
D|------------------------------------------------------|
A|------------------------------------------------------|
E|------------------------------------------------------|

e|-15b17r15--12h15p12----12--------|
B|--------------------15-----15b17-|
G|---------------------------------|
D|---------------------------------|
A|---------------------------------|
E|---------------------------------|

e|-------17b19-17b19-19-19-19--17b19-19-19-19-19r17-15--15h17p15-----|
B|-17h20---------------------------------------------------------17--|
G|-------------------------------------------------------------------|
D|-------------------------------------------------------------------|
A|-------------------------------------------------------------------|
E|-------------------------------------------------------------------|

e|----12--14--15p14-12------12--[14]b15r14b15--|
B|-12-------------------15---------------------|
G|---------------------------------------------|
D|---------------------------------------------|
A|---------------------------------------------|
E|---------------------------------------------|

e|----12-12--14-15p14-12----12-------12-10----10-----------|
B|-12--------------------15----15b17-------12----12----10--|
G|--------------------------------------------------12-----|
D|---------------------------------------------------------|
A|---------------------------------------------------------|
E|---------------------------------------------------------|

e|----12--14--15p14-12------12--[14]b15r14b15--|
B|-12-------------------15---------------------|
G|---------------------------------------------|
D|---------------------------------------------|
A|---------------------------------------------|
E|---------------------------------------------|

e|----12-12--14-15p14-12----12-------12-10----10-----------|
B|-12--------------------15----15b17-------12----12----10--|
G|--------------------------------------------------12-----|
D|---------------------------------------------------------|
A|---------------------------------------------------------|
E|---------------------------------------------------------|

e|----12-14-15----12-14-15----12-14-15----12-14-15h17p15--|
B|-12----------12----------12----------12-----------------|
G|--------------------------------------------------------|
D|--------------------------------------------------------|
A|--------------------------------------------------------|
E|--------------------------------------------------------|

e|-17b19-19-19------17b19r17b19--17-17p15----17-17p15--|
B|----------------------------------------17-----------|
G|-----------------------------------------------------|
D|-----------------------------------------------------|
A|-----------------------------------------------------|
E|-----------------------------------------------------|

e|-15--15-15-15-15--15-15-17-17--|
B|-------------------------------|
G|-------------------------------|
D|-------------------------------|
A|-------------------------------|
E|-------------------------------|

e|-----------------------|
B|-15-17-15-12-10--------|
G|----------------12-10--|
D|-----------------------|
A|-----------------------|
E|-----------------------|

e|---------------------------------------------------------------------------------|
B|-10/12-12-12-12-12--10/12-12-12-12-12--10/12-12-12-12-12--12p10-10h12--12b15r12--|
G|---------------------------------------------------------------------------------|
D|---------------------------------------------------------------------------------|
A|---------------------------------------------------------------------------------|
E|---------------------------------------------------------------------------------|

e|------------------------------------------10/12-12-12-12-12--10/12-12-12-12-|
B|-8h10p8h10p8h10p8h10p8h10p8h10p8h10p8h10--------------------------------------|
G|------------------------------------------------------------------------------|
D|------------------------------------------------------------------------------|
A|------------------------------------------------------------------------------|
E|------------------------------------------------------------------------------|

e|-10/12-12-12-12-12--10/12-12-12-12-12--|
B|---------------------------------------|
G|---------------------------------------|
D|---------------------------------------|
A|---------------------------------------|
E|---------------------------------------|

e|-13b15---12h15p12-10----12--10h12--|
B|---------------------13------------|
G|-----------------------------------|
D|-----------------------------------|
A|-----------------------------------|
E|-----------------------------------|. . . END

Comments: jcrp_21@hotmail.com
Comments