Carlos Santana - Say It Again Chords & Tabs

 

Say It Again Chords & Tabs

Carlos Santana Chords & Tabs

Version: 1 Type: Tab 0 ratings
1 star 2 stars 3 stars 4 stars 5 stars
comments

Say It Again Tab

   
Song Title: Say it again
Artist/Band: Santana
Album: Beyond Appearances(1985), The Essential Santana disc 2(2002).

Tab by JC Rea(jcrp_21@hotmail.com)

Symbols:

h=hammer-on
p=pull-off
/=slide-up
b=bend
r=release bend
()=let ring
P.M.=Palm Mute
S///=Slow tremolo picking
~=Left hand vibrato

Tuning: Standard

INTRO CHORDS:
-Am:577555
-GMaj:355433
-FMaj:133211
-EMaj:022100

After that:
e|-----------------------|----------------------|
B|-----------------------|----------------6-----|
G|---------------5-----4-|------------------5-4-|
D|---7---7-9---5---7-3---|---7---7-9---5--------|
A|-8---8-----------------|-8---8----------------|
E|-----------------------|----------------------|
   |       |               |       |
   ---------               ---------
       |                       |
       -------->These five first notes are Palm muted.
       |        This part is also heard during 2nd and 3rd VERSES.
   ---------
   |       |
e|------------------------|-----------------|
B|------------------------|-----6---------8-|
G|------------------------|-4h5-------5h7---|
D|---7---7-9------5-----4-|-----------------|
A|-8---8--------5---7-3---|-----------------|
E|------------------------|-----------------|

1st VERSE:
"It gives me such a thrill
 When you tell me 'bout the way you feel
 It really makes my day
 I just love to hear you saying".

CHORUS:
"Say it again
 Say it high say it low
 Say it again
 So the whole wide world will know
 Say it
 That you're still lovin' me
 Still lovin' me
 Still in love with me"

Guitar 1:
e|-------------------------------------------------------------------------------------|
B|-------------------------------------------------------------------------------------|
G|-------------------------------------------------------------------------------------|
D|-P.M.3-3--3-3--3-3--3-3---2-2--2-2--2-2--2-2---0-0--0-0--0-0--0-0--------------------|
A|------------------------------------------------------------------3-3--3-3--3-3--3-3-|
E|-------------------------------------------------------------------------------------|

e|---------------------------------------------------------------------------------------|
B|---------------------------------------------------------------------------------------|
G|---------------------------------------------------------------------------------------|
D|---------------------------------------------------------------------------------------|
A|---------------------------------------------------------------------------------------|
E|-P.M.1-1--1-1--1-1--1-1---3-3--3-3--3-3--3-3---1-1--1-1--1-1--1-1---0-0--0-0--0-0--0-0-|

Guitar 2:
e|---------------------------|
B|-------------1---1---------|
G|-0---0-0---0-2---2-4---4-2-|
D|-2---2-2---2-2---2-5---5-3-|
A|-3---3-2---2-0---0-5---5-3-|
E|-3---3-0---0-------3---3-1-|

e|-------------------------------------------|
B|-1---1---3-3-------1---1---3-3-------1-----|
G|-2---2---2-2-------2---2---2-2-------2---1-|
D|-3---2---0-0-------3---2---0-0-------3---2-|
A|-3---0-------------3---0-------------3---2-|
E|-----------------------------------------0-|


2nd VERSE and 2nd CHORUS are the same than 1st ones


BRIDGE(same chords and rythm than INTRO):

Am           GMaj       FMaj
"I hear the echoes in my mind
       EMaj
 They're calling to me all the time
Am            GMaj           FMaj
 I hear those voices start to sing
EMaj
 Again and again"

SOLO 1:

e|--------------|------8h10p8----8h10-|
B|---8---8b10r8-|-8h10--------10------|
G|-5---9--------|---------------------|
D|--------------|---------------------|
A|--------------|---------------------|
E|--------------|---------------------|
  1:43

e|------8h10p8----10p8----10p8----10p8-10p8-10b12-10b12-10b12-10b12-|
B|-8h10--------10------10-----10------------------------------------|
G|------------------------------------------------------------------|
D|------------------------------------------------------------------|
A|------------------------------------------------------------------|
E|------------------------------------------------------------------|
  1:46

e|-12-15-15p12-15p12-15p12---15p12-15p12-15p12--15b17-17-15b17-15b17-15b17r15--|
B|-----------------------------------------------------------------------------|
G|-----------------------------------------------------------------------------|
D|-----------------------------------------------------------------------------|
A|-----------------------------------------------------------------------------|
E|-----------------------------------------------------------------------------|
  1:52
[ Tab from: http://www.guitartabs.cc/tabs/c/carlos_santana/say_it_again_tab.html ]
  -12h15p12----12-10/12-------------|
  ----------15----------15b17r15b17-|
  ----------------------------------|
  ----------------------------------|
  ----------------------------------|
  ----------------------------------|

e|-12---S///--12---S///--12---S///--12---S///--15-15p12p10h12-10h12p10----|
B|-15b17S///--15b17S///--15b17S///--15b17S///--------------------------13-|
G|------------------------------------------------------------------------|
D|------------------------------------------------------------------------|
A|------------------------------------------------------------------------|
E|------------------------------------------------------------------------|
  1:59

e|-20b22r20~~~---17-20-22--22b24-20\-|
B|-----------------------------------|
G|-----------------------------------|
D|-----------------------------------|
A|-----------------------------------|
E|-----------------------------------|
  2:03

e|-17-20-22p20-22p20-22p20-22p20--22--22b24-22b24-22b24-22b24-22b24r22-|
B|---------------------------------------------------------------------|
G|---------------------------------------------------------------------|
D|---------------------------------------------------------------------|
A|---------------------------------------------------------------------|
E|---------------------------------------------------------------------|
  2:06

3rd VERSE

3rd CHORUS

4th CHORUS

FINAL SOLO:
e|----8-8----8-8----8-8----8-8----8-8----8-10-12--10b12-12-12-12-12--10b12-12-12-12-12--|
B|-10-----10-----10-----10-----10-----10------------------------------------------------|
G|--------------------------------------------------------------------------------------|
D|--------------------------------------------------------------------------------------|
A|--------------------------------------------------------------------------------------|
E|--------------------------------------------------------------------------------------|
  2:53

  -10b12-12-12-12-12---10b12-12---10b12-12---10b12-12---10b12\-|
  -------------------------------------------------------------|
  -------------------------------------------------------------|
  -------------------------------------------------------------|
  -------------------------------------------------------------|
  -------------------------------------------------------------|

e|-17-15b17-17---15b17-17-17-17-15b17-17---15b17-17----------10-8----8-10-12-8/10-10-|
B|--------------------------------------------------17p15p12------10-----------------|
G|-----------------------------------------------------------------------------------|
D|-----------------------------------------------------------------------------------|
A|-----------------------------------------------------------------------------------|
E|-----------------------------------------------------------------------------------|
  3:00

e|------7-8-10-12-13-15-15/17---20-22p20-20-|
B|-8-10-------------------------------------|
G|------------------------------------------|
D|------------------------------------------|
A|------------------------------------------|
E|------------------------------------------|
  3:03

e|-22b24-22b24-22b24---22b24-22b24-22b24-|
B|---------------------------------------|
G|---------------------------------------|
D|---------------------------------------|
A|---------------------------------------|
E|---------------------------------------|
  3:07

e|-22b24-24-24-24-24---22b24-22b24-24-24-24-24-24r22---20-22-24-20\-|
B|------------------------------------------------------------------|
G|------------------------------------------------------------------|
D|------------------------------------------------------------------|
A|------------------------------------------------------------------|
E|------------------------------------------------------------------|
  3:11

e|-20b22-20---15h17p15-12-12--10-8---15p12-|
B|---------------------------------8-------|
G|-----------------------------------------|
D|-----------------------------------------|
A|-----------------------------------------|
E|-----------------------------------------|
  3:15

e|-17p15p12--17p15p12--17p15p12--17p15p12--17p15p12-|
B|--------------------------------------------------|
G|--------------------------------------------------|
D|--------------------------------------------------|
A|--------------------------------------------------|
E|--------------------------------------------------|
  3:17


e|-15b17-----17-20-19---20-19-15-----15/17-15-------------|
B|-------------------------------17-----------17-15-------|
G|--------------------------------------------------17-14-|
D|--------------------------------------------------------|
A|--------------------------------------------------------|
E|--------------------------------------------------------|. . . END
  3:19

Comments:jcrp_21@hotmail.com
Comments