Carlos Santana - Samba Pa Ti Chords & Tabs

 

Carlos Santana Chords & Tabs

Version: 2 Type: Tab 0 ratings
1 star 2 stars 3 stars 4 stars 5 stars
comments

Samba Pa Ti Tab

   
Santana - Samba Pa Ti
Submitted By: Eliot Rintoul
EMail: oi_you_nutter@hotmail.com


rst. = 1 beat rest
1/2 rst. - 1/2 beat rest
5/7 = play fret 5, then slide to 7
5h7 = play 5 then hammer to 7
5h7p5 = play 5, hammer to 7, then pull off 5
7p5 = pull of 
h7 = hammer 7 after a rest

E|---------------------3---||
B|-----------3-4/5---------||
G|-2--4--5-----------------||
D|-------------------------||
A|-------------------------||
E|-------------------------||


E|--------------------|--------------|------------|------------------------3-||
B|-/-------------3----|-7------------|------------|---------------3-4/5------||
G||.--5/7------4------|--------------|------------|-rst.---2-4 5-------------||
D||.---------5--------|--------------|-(bar rest)-|--------------------------||
A|-\------------------|--------------|------------|--------------------------||
E|--------------------|--------------|------------|--------------------------||

E|----------------|-----------------|-------------|--5h7--4h5--3------|--5----7--||
B|------------3---|----7--7---------|-------------|----------------5--|----------||
G|-5/7------4-----|-----------------|-------------|-------------------|----------||
D|--------5-------|-----------------|-(bar rest---|-------------------|----------||
A|----------------|-----------------|-------------|-------------------|----------||
E|----------------|-----------------|-------------|-------------------|----------||

E|-5h7-5h7p5--3-------|-5----------------------------|-----------5-----------5--|---||
B|-----------------5--|---5-5-(1/2 beat rest)--h7----|-------------7-5/4/5h7----|---||
G|--------------------|----------------------------7-|--------------------------|---||
D|--------------------|------------------------------|-1/2 rst.-----------------|-7-||
A|--------------------|------------------------------|--------------------------|---||
E|--------------------|------------------------------|--------------------------|---||

E|--------------------|-6h7-----------5--|------------||
B|---3------5--7------|------8-8-5-8-----|----------\-||
G|-4--------------7---|------------------|----------.|||
D|--------------------|------------------|----------.|||
A|--------------------|------------------|----------/-||
E|--------------------|------------------|------------||

E|-----------------|-10---------|--------------------------------|--------------||
B|-8-8-8-10-10-12--|------------|--------------------------------|--------------||
G|-----------------|------------|-1/2 rst.--------12--10---------|-----------10-||
D|-----------------|------------|-------------------------12--11-|---11--12-----||
A|-----------------|------------|--------------------------------|--------------||
E|-----------------|------------|--------------------------------|--------------||

E|---------------------------|--7-------|------------------------|----------------||
B|--------------------8--10--|----------|------------------8--10-|----------------||
G|---------7-7-7--9----------|----------|--rst.--7-7-7--9--------|---7/9/7--------||
D|-rst.----------------------|----------|------------------------|----------------||
A|---------------------------|----------|------------------------|----------------||
E|---------------------------|----------|------------------------|----------------||


                                                            repeat last line 4 times

Transcribed by Eliot Rintoul

E-mail: oi_you_nutter@hotmail.com
===========
           _   _  __  ___ ___ __ __   _   _  _      Michael J. Hoffman
          | |_| |/ .|  =|  =|  V  | /  | | |     Encore Computer Corporation
          |_| |_|__/|_| |_| |_|V|_|/_^_|_|_|     mhoffman@encore.com
          "I am logged in, therefore I am."

         


                                        Samba Pa Ti

                     Music by Carlos Santana from the album "Abraxas"


                            Legend of symbols used in this tab:

                        5/7               Slide up from fret 5 to 7
                        75               Slide down from fret 7 to 5
                        /5                Slide up "from nowhere"
                        5                Slide down "to nowhere"
                        5b7               Pick fret 5, then bend two frets
                        [5]b7             Bend two frets before picking
                        5b7r5             Pick, bend two frets, release bend
                        5h7               Pick fret 5, hammer on fret 7
                        7p5               Pick fret 7, pull of to fret 5
                        (7)               The note is still ringing from a previous hit
                        ~~~               Left hand vibrato
                        X                 Fret string loosely to mute the sound

                               G             Bm             Em
          |-----------------||-------------|---------------|----------------|
          |---------------8-||-------------|-6/7---7h8p7---|----------------|
          |---------7-8h9---||-5h7-----4h7-|---------------|----------------|
          |--7-9-10---------||--------5----|-------------9-|----------------|
          |-----------------||-------------|---------------|----------------|
          |-----------------||-------------|---------------|----------------|

            Am7                G             Bm             Em
          |------------------|-------------|---------------|----------------|
          |----------------8-|-------------|-6/7-7--7h8p7--|----------------|
          |----------7-8h9---|-5h7-----4h7-|---------------|----------------|
          |---7-9-10---------|--------5----|-------------9-|----------------|
          |------------------|-------------|---------------|----------------|
          |------------------|-------------|---------------|----------------|

            Am7                      D             Am7
          |--5h7-5h7p5---------5----|-----7------|--5h7p5h7p5---------------|
          |------------8-(8)p5-8b10-|-----10b12--|------------8----(8)p5----|
          |-------------------------|------------|--------------------------|
          |-------------------------|------------|--------------------------|
          |-------------------------|------------|--------------------------|
          |-------------------------|------------|--------------------------|

            D                [hold]                  Am        Bm
          |-----------------|----------------------|---------|-----------------|
          |-8b10r8p5-5h7p5--|---------5---------5--|---------|------4/5h7------|
          |---------------7-|-(7)------7-54/5h7---|---------|-4--7-------4--7-|
          |-----------------|--------------------7-|-(7)-----|-----------------|
          |-----------------|----------------------|---------|-----------------|
          |-----------------|----------------------|---------|-----------------|

            Am                         D         (D)              G
          |-5h7-5h7p5-5---------5----|-(5)----|-----------------|--------------|
          |-------------8-8p5-8-8b10-|-(8b10)-|---------------8-|--------------|
          |--------------------------|--------|---------7-8h9---|-5h7------4-7-|
          |--------------------------|--------|--7-9-10---------|--------------|
          |--------------------------|--------|-----------------|--------------|
          |--------------------------|--------|-----------------|--------------|

            Bm              Em        Am7                G
          |----------------|--------|------------------|--------------|
          |-6/7-7--7h8p7---|--------|----------------8-|--------------|
          |-------------7--|-9------|----------7-8h9---|-5h7-----4-7--|
          |--------------9-|--------|---7-9-10---------|--------------|
          |----------------|--------|------------------|--------------|
          |----------------|--------|------------------|--------------|

            Bm             Em           ~~~~                    Am7         
|---------------|------12---------12-----------------|-5h7-5h7p5-----5----|         
|-6/7-7--7h8p7--|----12---15b17-----14-14b16r14p12---|----------8p5--8b10-|         
|---------------|--12-----------------------------14-|--------------------|         
|-------------9-|------------------------------------|--------------------|         
|---------------|------------------------------------|--------------------|         
|---------------|------------------------------------|--------------------|

           D   ~~~~~~         Am7            D            [hold]               Am         
|-(5)-------7-----|-5h7p5h7p5----|-3/5----------|-------------------|--------|         
|-(8b10)----10b12-|----------8p5-|-----5-5h7p5--|------5----------5-|--------|         
|-----------------|--------------|------------7-|-(7)---7-54/5h7---|--------|         
|-----------------|--------------|--------------|-------------------|-7--7/8-|         
|-----------------|--------------|--------------|-------------------|--------|         
|-----------------|--------------|--------------|-------------------|--------|

           Bm                Am                       D                 (D)         
|---------------5h7-5h7p5-5---------5-----|--(5)------5/7-|---(7)-----------|         
|----------------|---------8-8p5-8-[8]b10-|-([8]b10)------|-----------------|         
|--7-7--8/9-7-7--|------------------------|---------------|-----------------|         
|-9---9------9---|------------------------|---------------|-----------------|         
|----------------|------------------------|---------------|-----------------|         
|----------------|------------------------|---------------|-----------------|

                                (w/Fill 1 these 2 measures.........)
            G                   Bm          Bbm Am                    D
         
|------------7-7-----|-(7)----------|--------5h7-5h7p5----|----------5------|
         
|---8-8-8-10---10b12-|(10b12)--7----|-(7)-------------8-7-|-(7)-7-8---------|
         
|--------------------|---------9b11-|-(9b11)--------------|-----------------|
         
|--------------------|--------------|---------------------|-----------------|
         
|--------------------|--------------|---------------------|-----------------|
         
|--------------------|--------------|---------------------|-----------------|

                          Fill 1:
                                          ~~~~~~~~~~~~~~~~~~
                         |----10-------12--------|------------12------|
                         |----13b15----15b17-----|--------------------|
                         |-----------------------|--------------------|
                         |-----------------------|--------------------|
                         |-----------------------|--------------------|
                         |-----------------------|--------------------|

                                (w/Fill 2 these three measures...............)
            G                   Bm           Bbm Am
         
|-----------7-7-----|-(7)-----------|--------------5h7-5h7p5-----|---------5-|
         
|--8-8-8-10---10b12-|-(10b12)--7----|------------------------8-7-|-(7)-7-8---|
         
|-------------------|----------9b11..(hold)....r9----------------|-----------|
         
|-------------------|---------------|----------------------------|-----------|
         
|-------------------|---------------|----------------------------|-----------|
         
|-------------------|---------------|----------------------------|-----------|

                         Fill 2:                             (....doubles 1st
gtr....)
                             
|-------10------|--------------5h7-5h7p5-----|---------5-|
                             
|-------13b15....(hold)...r13------------8-7-|-(7)-7-8---|
                             
|---------------|----------------------------|-----------|
                             
|---------------|----------------------------|-----------|
                             
|---------------|----------------------------|-----------|
                             
|---------------|----------------------------|-----------|

           Gtr. Solo: double time
           G               Am             G                    Am   
~~~~~~~~~~~~
         
|-----------3-5-|-(5)/7--------|--------------3-5--|------------------------|
         
|---3-3-3h5-----|--------------|------3-3-3h5------|--3h5p3----------(3)h5--|
         
|---------------|--------------|-------------------|------------------------|
         
|---------------|--------------|-------------------|------------------------|
         
|---------------|--------------|-------------------|------------------------|
         
|---------------|--------------|-------------------|------------------------|

           G               Am             G                    Am
         
|-----------3-5-|-(5)/7--(7)3-|--------------3-5--|--------------------|
         
|---3-3-3h5-----|--------------|------3-3-3h5------|--3h5p3-----------3-|
         
|---------------|--------------|-------------------|--------------------|
         
|---------------|--------------|-------------------|--------------------|
         
|---------------|--------------|-------------------|--------------------|
         
|---------------|--------------|-------------------|--------------------|
[ Tab from: http://www.guitartabs.cc/tabs/c/carlos_santana/samba_pa_ti_tab_ver_2.html ]
           G                                     Am
                ~~~~  ~~~~  ~~~~  ~~~~  ~~~~
          |-8h10----10----10----10----10----10-|-(10)-8-7-7p5---------5--7-----|
          |------------------------------------|--------------8-7--8-----------|
          |------------------------------------|----------------------------7--|
          |------------------------------------|-------------------------------|
          |------------------------------------|-------------------------------|
          |------------------------------------|-------------------------------|

            G                       Am                       G
                                                              ~~~ ~~~ ~~~       
~~~ ~~~
         
|-3--------------------|-------0------------7/10-|-10--10--10--7-10-7-10--10-|
         
|---3/53-5-3b5r3p0----|------0-3p0--------------|---------------------------|
         
|------------------2b4-|-(2b4)-----2b4r2p0-------|---------------------------|
         
|----------------------|------------------2------|---------------------------|
         
|----------------------|-------------------------|---------------------------|
         
|----------------------|-------------------------|---------------------------|

            Am                      G                Am
                                                            ~~~~ ~~~~ ~~~~ ~~~~
~~~~
         
|-(10)-8-7-7p5------5-7-|-3--------12-----|---------------------------------|
         
|-------------8-7-8-----|---3/53-----15b17r15---15---15---15---15---15-----|
         
|-----------------------|-----------------|---------------------------------|
         
|-----------------------|-----------------|---------------------------------|
         
|-----------------------|-----------------|---------------------------------|
         
|-----------------------|-----------------|---------------------------------|

            G                              Am
          ~~~~  ~~ ~~                          ~~~~  ~~~~~~~
          |------------------------------|----------------------|
          |(15)-15-15-15p12--------------|----------15--(15)p12-|
          |----------------14b16r14p12---|-12-14b16-------------|
          |---------------------------14-|----------------------|
          |------------------------------|----------------------|
          |------------------------------|----------------------|

            G                                  Am
          |-------------------12-------------|-------------------------------|
          |-15-15b17r15p12-15----15b17r15p12-|-15-15-15----------------------|
          |----------------------------------|----------14b16-14b16r14p12----|
          |----------------------------------|----------------------------14-|
          |----------------------------------|-------------------------------|
          |----------------------------------|-------------------------------|

            G                       Am
             ~~~~~~  ~~~~~~
          |-----------------------|--------------------12----------------------|
          |-----------------------|------------------12--15p12-----------15b17-|
          |-12----14b16----14b16.....r14--14p12-14b16---------14b16r14p12------|
          |-----------------------|--------------------------------------------|
          |-----------------------|--------------------------------------------|
          |-----------------------|--------------------------------------------|

           G                                         Am
                                                ~~~
         
|-(15b17)r15p12--------------------------|-12-14-14--15-15--17-17--15-15--14-|
         
|--------------15b17r15p12---------------|-----------------------------------|
         
|-------------------------14b16r14p12----|-----------------------------------|
         
|------------------------------------14--|-----------------------------------|
         
|----------------------------------------|-----------------------------------|
         
|----------------------------------------|-----------------------------------|

           G                           Am
          |-14--12-1210-12---------|--------------------------|
          |------------------12h13p1210h12p108-10p87-5-----5-|
          |--------------------------|--------------------7b9---|
          |--------------------------|--------------------------|
          |--------------------------|--------------------------|
          |--------------------------|--------------------------|

           G                            Am                      ~~~
         
|------5---------------12---|------------12----------------------------|
         
|----5-----------15b17------|--12--15b17----14b16r14p12--14b16r14p12---|
         
|-7b9---7b9r7p5/----------14b16-------------------------------------14-|
         
|---------------------------|------------------------------------------|
         
|---------------------------|------------------------------------------|
         
|---------------------------|------------------------------------------|

           G        ~~~         Am
          |-------------17b19-|-[17]b19r17p15-17-17------12h14-|
          |-------------------|---------------------17--------|
          |-12-14b16----------|--------------------------------|
          |-------------------|--------------------------------|
          |-------------------|--------------------------------|
          |-------------------|--------------------------------|

           G                                    Am
         
|-15p14p12-14p1210-12p10-8-7-5-3-5-|-5-------5h7p5-------------5--/11/12---|
         
|---------------------------------5-|---5-7/8-------8-87p5---5-------------|
         
|-----------------------------------|----------------------7b9--------------|
         
|-----------------------------------|---------------------------------------|
         
|-----------------------------------|---------------------------------------|
         
|-----------------------------------|---------------------------------------|

           G                         Am              ~~~  G
          |-1210-108-87-75-53-32-2p0--------------|---3-5-7-/106/7-5-7-|
          |-------------------------|-----3p1-1p0-0-----|---------------------|
          |-------------------------|---------------2---|-0-------------------|
          |-------------------------|-------------------|---------------------|
          |-------------------------|-------------------|---------------------|
          |-------------------------|-------------------|---------------------|

           Am  ~~             G
         
|-----------------|-------------------------------------------------------|
         
|-------53-3h5p3-|-5p3-0h3h5p3p0h3h5p3p0h3h5p3p0h3h5p3p0-3h5p3p0-3h5p3p0-|
         
|-7b9r7-----------|-------------------------------------------------------|
         
|-----------------|-------------------------------------------------------|
         
|-----------------|-------------------------------------------------------|
         
|-----------------|-------------------------------------------------------|

            Am                                    G
         
|---------------------------------/12-|-22--22-21--21-20--20--19--19-----|
         
|-3h5p3p0-3h5p3p0-3h5p3p0-3h5p3p0-----|-----------------------------------|
         
|-------------------------------------|-----------------------------------|
         
|-------------------------------------|-----------------------------------|
         
|-------------------------------------|-----------------------------------|
         
|-------------------------------------|-----------------------------------|

            Am
          |-17-17-15-14-12-----------------|
          |---------------15b17r15p12------|
          |--------------------------14b16-|
          |--------------------------------|
          |--------------------------------|
          |--------------------------------|

           G
          |---12------------12-------------------------12----------------15b17-|
          |-12--15p12-----12--15p12-----12-15p12-----12--15p12-----------------|
          |----------14b16---------14b16--------14b16---------14b16r14p12------|
          |--------------------------------------------------------------------|
          |--------------------------------------------------------------------|
          |--------------------------------------------------------------------|

            Am                                G                  Am   ~~~~
         
|-(15b17)r15p12----------------15-|-14-12----------12-|---------------------|
         
|--------------12-15--------------|------15p12-153---|------------------10-|
         
|-------------------14b16r14-12---|-------------------|-14b16r14-12--121---|
         
|---------------------------------|-------------------|------------14-------|
         
|---------------------------------|-------------------|---------------------|
         
|---------------------------------|-------------------|---------------------|

           G                       Am               G          Am
                                                         ~~~~    ~~~
         
|-7h8----7------7------|-5---0---------0-|-12-10----|-12--12h14-12h14p12----|
         
|--h8-10---8-10---8-10-|---5---5-5b7r5---|----------|-----------------------|
         
|----------------------|-----------------|----------|-----------------------|
         
|----------------------|-----------------|----------|-----------------------|
         
|----------------------|-----------------|----------|-----------------------|
         
|----------------------|-----------------|----------|-----------------------|

           G                        Am                       G
             ~~~                ~~~~~~~~~~~                   ~~~
          |-----------------------|---------12h14-12h14p12-|-------------------|
          |-15--12-15-15b16r15b17-|-(15b17)----------------|-15--12-15p12------|
          |-----------------------|------------------------|-------------14b16-|
          |-----------------------|------------------------|-------------------|
          |-----------------------|------------------------|-------------------|
          |-----------------------|------------------------|-------------------|

           Am
          |-------------------------------------------------------------|
          |-------------------------------------------------------------|
          |-(14b16)r14p12-14b16r14p12-14-[14]b16r14p12-14-[14]b16r14p12-|
          |-------------------------------------------------------------|
          |-------------------------------------------------------------|
          |-------------------------------------------------------------|

           G (Begin to fade)
          |-------------------------------------------|
          |------12-----12-----12-----12-----12-15b17-|
          |-14b16--14b16--14b16--14b16--14b16---------|
          |-------------------------------------------|
          |-------------------------------------------|
          |-------------------------------------------|

           Am
          |-12-------12----------------------12-12---------------------|
          |--------12--15p12---------------12---12---------------------|
          |---14b16---------14b16r14p12--12-----12-X-------/X-X------|
          |----------------------------14-------------X---/----------|
          |----------------------------------------------X/------------|
          |-------------------------------------------------------------|

           G                   Am              G
          |-3p2-0-------------|--------------|---3-5---5-3---2/-|
          |-------3-0---------|--------------|-------5-----3----|
          |-----------0-------|--------------|------------------|
          |-------------4-0-2-|--------------|------------------|
          |-------------------|-0-2--2p0-----|------------------|
          |-------------------|----------3-0-|-3----------------|

            Am                            G               Am
         
|-12-----------------------1210-107-75-53-3h5p3---------------------0--X/|
         
|----------------------------|-----------------|---5-3b5r3p0---------0-0-0-X/|
         
|--14b16r14p12-14b16r14p12---|-----------------|------------2b4r2p0-0-2------|
         
|-------------------------14-|-----------------|-------------------2---------|
         
|----------------------------|-----------------|-----------------------------|
         
|----------------------------|-----------------|-----------------------------|

            G                                                 Am
         
|-12------------------------12--------12---X-12-15b17-17b19-19b22-22b23-|
         
|---15-12-----------------12--15p12-X---15-X------|----------------------|
         
|--------14b16r14p12-14b16-------------------------|----------------------|
         
|--------------------------------------------------|----------------------|
         
|--------------------------------------------------|----------------------|
         
|--------------------------------------------------|----------------------|

           G
          |-7p5-3p2----------------|
          |---------5-3/5b7r5p3--3-|
          |------------------------|       Fade to black.........Whew!!!!!!!!!
          |------------------------|
          |------------------------|
          |------------------------|
Comments