Carlos Santana - Put Your Lights On Chords & Tabs

 

Put Your Lights On Chords & Tabs

Carlos Santana Chords & Tabs

Version: 1 Type: Bass Tab 0 ratings
1 star 2 stars 3 stars 4 stars 5 stars
comments

Put Your Lights On Bass Tab

Tabbed By : Foolishmule
e-mail: foolish_mule@hotmail.com

Tuning: Normal - EADG

	Intro and verse.
G|---------------------------------------------------------------------|
D|--------------------------------3------------------------------------|
A|----0--0-----3--3----------------------------------------------------| x6 
E|----------------------3--3-------------0-----------------------------|


	Chorus - (Cause there's a monster...)
G|---------------------------------------------------------------------|
D|---------------------------------------------------------------------|
A|---0--0----------0--0----------0--0----------0--0--------------------|
E|----------0--0----------0--0----------0--0----------0--0-------------|

	Verse 
G|---------------------------------------------------------------------|
D|--------------------------------3------------------------------------|
A|----0--0-----3--3----------------------------------------------------| x2
E|----------------------3--3-------------0-----------------------------|
[ Tab from: http://www.guitartabs.cc/tabs/c/carlos_santana/put_your_lights_on_btab.html ]
	Bridge
G|----------------------------------)----------------------------------|
D|----------------------------------)----------------------------------|
A|-----3-3---4-4--------------------)--x2------------------------------|
E|----------------4-4----1-1-1--0---)-------0---1-1-1--0---0-----------|

	Verse 
G|---------------------------------------------------------------------|
D|--------------------------------3------------------------------------|
A|----0--0-----3--3----------------------------------------------------| x3
E|----------------------3--3-------------0-----------------------------|


	Chorus - (Cause there's a monster...
G|---------------------------------------------------------------------|
D|---------------------------------------------------------------------|
A|---0--0----------0--0----------0--0----------0--0--------------------|
E|----------0--0----------0--0----------0--0----------0--0-------------|

	Verse 
G|---------------------------------------------------------------------|
D|--------------------------------3------------------------------------|
A|----0--0-----3--3----------------------------------------------------|  
E|----------------------3--3-------------0~~~~~~~~~~ (to fade)---------|
Comments