Carlos Santana - Love Of My Life Chords & Tabs

 

Love Of My Life Chords & Tabs

Carlos Santana Chords & Tabs

Version: 3 Type: Tab 0 ratings
1 star 2 stars 3 stars 4 stars 5 stars
comments

Love Of My Life Tab

   
Love of My life
   by dave matthews and Carlos Santana
   from the Santana release Supernatural
   tab by greggnokio(nokio72@aol.com)

   h=hiton
   /=slide
   main riff:

   e-----------------------------------------------
   b---------------------------------6--------------
   g-------------7--5-------------------8-------------
   d---5--7--8---------7---5--7--8---------7----------
   a-------------------------------------------------
   E--------------------------------------------------
[ Tab from: http://www.guitartabs.cc/tabs/c/carlos_santana/love_of_my_life_tab_ver_3.html ]
   e--------------------------------------------------------
   b--------------------------------------------------------
   g---------5--5--8--7---------7--5------------------------
   d---7--8--------------8--8---------5--5-5-5--4--5-5/7----
   a--------------------------------------------------------
   E---------------------------------------------------------

   the verses are improvs to the main riff and the g pentatonic 
   scale:

   e---3-------6---------------------------------------
   b---3-------6--------------------------------------
   g---3-------5--(6)------------------------------------
   d---3-------5--------------------------------------
   a---3--(4)--5------------------------------------------
   E---3-------6-------------------------------------------

   the other part "every day and every night..." is something
   similar to this:

   e---------------------------------------------------
   b---------------------------------------------------
   g--------------10--8-----8h10--8---------------------
   d----8--9--10---------7-----------5--5-5-8-7-5-5------
   a----------------------------------------------------
   E---------------------------------------------------- 
Comments