Carlos Santana - Love Of My Life Chords & Tabs

 

Love Of My Life Chords & Tabs

Carlos Santana Chords & Tabs

Version: 2 Type: Tab 0 ratings
1 star 2 stars 3 stars 4 stars 5 stars
comments

Love Of My Life Tab

T1: Matt, nirvn@hotmail.com, Santana feat. D. Matthews, Love of my
life, ??/??/99

S1: Questions? nirvn@hotmail.com

 I must be somewhat crazy but anyway, I decided to tab this song while
I was
(and still am) in a very painful situation with "my girl" :( anyway. 
For the chords, check the older version of this song made by Chico.

 The intro & main riff of chico were a bit wrong but she did a cool job

anyway. The "in-lyrics solos" done by santana will be online later when
I 
will finish them.

 Enjoy!

 Part Carlos Santana Plays : 
 Intro/Main riff:                                     (*)
e------------------------------------------------------------------- 
b----------------------------------6-------------------------------- 
g--------------5/7-5------------------8----------5-5-5/8-7---5/7-5--
d-5--7--8-----------7-----5--7--8--------7---7-8-----------8------5-
a------------------------------------------------------------------- 
E------------------------------------------------------------------- 

e------------------------------------------------------- 
b------------------------------------------------------- 
g------------------------------------------------------- 
d-555--4-5--5/7-7-------------------------------------- 
a------------------------------------------------------- 
E------------------------------------------------------- 
[ Tab from: http://www.guitartabs.cc/tabs/c/carlos_santana/love_of_my_life_tab_ver_2.html ]
=====================================
   (*) Variation during the solo
   e---------------------
   b---------------------
   g-5-5-5/8-7-87---787--
   d-------------858---8-
   a---------------------
   E---------------------
=====================================

 Between-lyrics-solo for the first verse:
 *note: I'm not even trusting what I wrote here so if someone has a
        better, or should I say an exact, way to do it, mail it to me
please.
e-----------------------------
b-10-12>13-12h13r12-----------
g--------------------12-------
d-----------------------------
a-----------------------------
E-----------------------------

e-------10-13-11-10-8-10r8h10-
b-10-13-----------------------
g-----------------------------
d-----------------------------
a-----------------------------
E-----------------------------

e-----------------------------
b-13>15<13-11-13-13>15-11-----
g-------------------------12--
d-----------------------------
a-----------------------------
E-----------------------------

 The kind of Chorus:
e------------------------------------------------------- 
b------------------------------------------------------- 
g----------10--8-----8h10-8----------------------------- 
d--8-9-10---------7----------5--55-8-7-5-/5------------- 
a------------------------------------------------------- 
E------------------------------------------------------- 

 Solo

 Take the main riff and add the variation the second time

Comments