Carlos Santana - Just Feel Better Chords & Tabs

 

Just Feel Better Chords & Tabs

Carlos Santana Chords & Tabs

Version: 4 Type: Tab

Just Feel Better Tab

Tabbed by:Daniel Reyes(mexico)
Email:king_azeb_09@hotmail.com

Tuning:

e|---------------------------------------------------------------------------|
B|16-15-16-15----------------------------------------------------------------|
G|------------15----15h17p15~~-----------------------------------------------|
D|---------------17----------------13-15-17-17-15-13-13-13h15p13-------------|
A|------------------------------13-------------------------------------------|
E|---------------------------------------------------------------------------|
Solo
e|16-15-16-15------------------16-16-16P18-------16--------------------------|
B|---------15---15p17-15-17-15/17----------17-17-----------------------------|
G|------------17-------------------------------------------------------------|
D|---------------------------------------------------------------------------|
A|---------------------------------------------------------------------------|
E|---------------------------------------------------------------------------|
[ Tab from: http://www.guitartabs.cc/tabs/c/carlos_santana/just_feel_better_tab_ver_4.html ]
e|---------------------------15H18-15H18-15H18-15H18--20-20-20---------------|
B|--------16-16-16--18S20--16-18---------------------------------------------|
G|---15/17---------------15--------------------------------------------------|
D|---------------------------------------------------------------------------|
A|---------------------------------------------------------------------------|
E|---------------------------------------------------------------------------|

e|18-15---------15-----------------------------------------------------------|
B|-----18-16-18------16------------------------------------------------------|
G|-------------17-17---12-12-12-12-------------------------------------------|
D|---------------------------------------------------------------------------|
A|---------------------------------------------------------------------------|
E|---------------------------------------------------------------------------|
End (x2)
e|16-15-16-15----------------------------------------------------------------|
B|-----------15--15h17-15~~--------------------------------------------------|
G|-------------17------------------------------------------------------------|
D|---------------------------------------------------------------------------|
A|---------------------------------------------------------------------------|
E|---------------------------------------------------------------------------|