Carlos Santana - Im Feeling You Chords & Tabs

 

Im Feeling You Chords & Tabs

Carlos Santana Chords & Tabs

Version: 2 Type: Tab

Im Feeling You Tab

|------------------------------------6~--11-10b11---------------------------|
|-/8-8-8-8-8\6-6-6p4-4h6-4-4-4/6-6-8---------------11-----------------------|
|-----------------------------------------------------12p10-12--------------|
|--------------------------------------------------------------13p10--------|
|--------------------------------------------------------------------13-----|
|---------------------------------------------------------------------------|


|------3------3-||------6--------------||-----------||----------------------|
|----4---4------||----8---8--6/8--6----||--/8-8-6---||--/11/16-16/18--------|
|-/5-------5----||-------------------8-||---------8-||----------------------|
|---------------||---------------------||-----------||----------------------|
|---------------||---------------------||-----------||----------------------|
|---------------||---------------------||-----------||----------------------|
 0:15             0:23                   0:27         0:31

|-------------------------||------------------------------------------------|
|-16-16-16h18-------------||----------7-8-10-8-----6-8-6-8~----6-8-6-8~-----|
|-------------15/17\15h17-||------------------------------------------------|
|-------------------------||--/8--10------------/8----------/8--------------|
|-------------------------||------------------------------------------------|
|-------------------------||------------------------------------------------|
 0:35                       0:39

|---------------------------------------------------------------------------|
|------------------11-11p9-9/8-8/6-6-----------6-8-6-8~----6-8-6-8~---------|
|------8-8-8-8h10--------------------8-8------------------------------------|
|-/10------------------------------------8--/8----------/8-----------/10--8-|
|---------------------------------------------------------------------------|
|---------------------------------------------------------------------------|


|---------------------------------------------------------------------------|
|-----------------16-18-19p18p16-18-----------16-18-20-18-16-18-16b18r16-16-|
|-8-10-10-12--/17----------------------/17-17-------------------------------|
|---------------------------------------------------------------------------|
|---------------------------------------------------------------------------|
|---------------------------------------------------------------------------|


|---------------------------------------------------------------------------|
|-15-13-----------------------------8h11p8----8----------16-16-16-16-18-----|
|-------15-13------------------8-10--------10---10---/15----------------/17-|
|-------------17-15-13---/8-10----------------------------------------------|
|---------------------------------------------------------------------------|
|---------------------------------------------------------------------------|


|---------------------------||---------------------|
|---------------------------||------------8------8-|
|-17-15---------------------||-------8-10---10-8---|
|--------17-15--------------||-/8-10---------------|
|---------------17-16-15-13-||---------------------|
|---------------------------||---------------------|
                      1:17     1:23

|--------------------------------------||----------------||--12b13--12b13---|
|-----------13-11----------------------||-/13h16-16~-16~-||-----------------|
|--11b12-12-------12-10h12p10----10----||----------------||-----------------|
|-----------------------------13----13-||----------------||-----------------|
|--------------------------------------||----------------||-----------------|
|--------------------------------------||----------------||-----------------|
 1:31                                    1:35              1:38

|-12b13-11-----11--------------------------||-/15~-13----13-15-13-----------|
|-----------13-----------------------------||---------16----------16-13-16~-|
|-----------------12-10----10-12-10----10~-||-------------------------------|
|-----------------------13----------13-----||-------------------------------|
|------------------------------------------||-------------------------------|
|------------------------------------------||-------------------------------|
                                             1:43

|-----------------------------------------------------------------|
|-----------------11---------------------6-8-6-8-----6-8-6-8------|
|--------------------11-10----10----------------------------------|
|-----------10-13----------13----13---/8----------/8---------/10--|
|-/10-10-13-------------------------------------------------------|
|-----------------------------------------------------------------|


|-----------------------------------------------------------------8~/15-----|
|--------------11-11p9-9/8--8/6-6-------------6-8-6-8-----------8-------/13-|
|-8-8-8-8-8h10--------------------8-8----------------------8-10-------------|
|-------------------------------------8----/8----------/10------------------|
|---------------------------------------------------------------------------|
|---------------------------------------------------------------------------|


|----13--------14b15r14----14-----------------------------------------------|
|-16----16--------------17----13--------------------------------------------|
|--------------------------------15b17-15b17r15-17---20b22-20b22r20-17h20p17|
|---------------------------------------------------------------------------|
|---------------------------------------------------------------------------|
|---------------------------------------------------------------------------|


|---------------------------------------------------------------------------|
|--------------------------------------------------------11-9-8-9-8-11-9-8--|
|----17---------------------------------------------------------------------|
|-20----20p17h20p17-----------------------10-13~---10h13--------------------|
|--------------------20p18h20p18---/10-13-----------------------------------|
|---------------------------------------------------------------------------|


|----------------------------------------------------------------------|
|------8------11-9-8-------8-----------------/13--16--16--13h16--16p13-|
|-8-10---10-8--------10-12---10b12-10-8-10-----------------------------|
|----------------------------------------------------------------------|
|----------------------------------------------------------------------|
|----------------------------------------------------------------------|
                                            ^solo
[ Tab from: http://www.guitartabs.cc/tabs/c/carlos_santana/im_feeling_you_tab_ver_2.html ]
|-----------------------------------------------------------18b19----18-----|
|-16/19b20r19b20--/13-16-16-13h16-16-13-16h18-/13-13----16~-------20----20--|
|----------------------------------------------------15---------------------|
|---------------------------------------------------------------------------|
|---------------------------------------------------------------------------|
|---------------------------------------------------------------------------|


|--------18b20-18b20-18b20-18b20-18b20----18--------------------------------|
|----18--------------------------------20----20--20-20-20-20-20-20-20-20-20-|
|-20---------------------------------------------20-20-20-20-20-20-20-20-20-|
|---------------------------------------------------------------------------|
|---------------------------------------------------------------------------|
|---------------------------------------------------------------------------|


|-----------------|---------------------------------------------------------|
|-20--------------|---------------------------------------------------------|
|-20--16b17-15-17-|------------------------17-15-------------------/12-12-10|
|-----------------|-8/17~-15----15~--15b17-------17-16-15b16r15-------------|
|-----------------|----------18---------------------------------18----------|
|-----------------|---------------------------------------------------------|
         end solo^  ^2:48

|---|--15~-16~--------------------------------------------------------------|
|---|---------16~------------18-20-18-20~------18-20-18-20~-----------18----|
|-12|-------------------------------------------------------/17-20-20-------|
|---|-------------------/20---------------/20-------------------------------|
|---|-----------------------------------------------------------------------|
|---|-----------------------------------------------------------------------|
     3:04

|-18-16----16---------------------------------------------------18b19-15----|
|-------20----20-18-16-------------18-20-18-20------18-20-18-20----------18-|
|----------------------/18--------------------------------------------------|
|--------------------------20--/20--------------/20-------------------------|
|---------------------------------------------------------------------------|
|---------------------------------------------------------------------------|


|-15----------------15~-----------------------------------------------------|
|----18-16-18-16-18-----------16h18-16-------------------------------18/16--|
|--------------------------------------17-15--------------------------------|
|--------------------------------------------17-15-------15\17----15--------|
|--------------------------------------------------17-15-------15-----------|
|---------------------------------------------------------------------------|



|-------------------------------------------------------|--15~--18-15-------|
|-------------------------------------------------------|-------------18-16-|
|-17-15-------------------------------------------------|-------------------|
|-------17-15------------------------------------10/15\-|-------------------|
|-------------18-15-18-15/13----------------8h10--------|-------------------|
|-----------------------------15-13-11-8h11-------------|-------------------|
                                                   3:33   3:35

|---------18b20r18----18-----------------------------------18b20r18----18---|
|-18---------------20----20-18h20p18-----18----18-20-18-------------20----20|
|-------------------------------------20----20----------20------------------|
|---------------------------------------------------------------------------|
|---------------------------------------------------------------------------|
|---------------------------------------------------------------------------|


|--------------------------------------------------|
|-18h20p18----18-20--20-20-20-20-20-20-20-20-20-20-|
|----------20--------20-20-20-20-20-20-20-20-20-20-|
|--------------------------------------------------|
|--------------------------------------------------|
|--------------------------------------------------|


|-18b20-18b20-18b20-18b20r18------------------------------------------------|
|----------------------------20-18-20--20-20-20-20-20-----------------------|
|--------------------------------------20-20-20-20-20-------8------8------8-|
|------------------------------------------------------8h10---8h10---8h10---|
|---------------------------------------------------------------------------|
|---------------------------------------------------------------------------|


|---------------------------------------------------------------------------|
|---------------------------------------------------------------------------|
|-/12~-10~------8------8-----/15-13----------------------8------8/12~-10~---|
|----------8h10---8h10---10----------17-15-13-------8h10---8h10-------------|
|---------------------------------------------15-13-------------------------|
|---------------------------------------------------------------------------|


|--------------------------------------------8-11-11/13-13-11--/15~-|
|----------------------------------11-8-8-11------------------------|
|------8------8------------------8----------------------------------|
|-8h10---8h10---------------8-10------------------------------------|
|--------------------8-9-10-----------------------------------------|
|---------------8h11------------------------------------------------|


|-15h16p15h16p15h16p15h16p15h16p15-16--15-------------------18-16-15-16p15--|
|-----------------------------------------16--------------------------------|
|--------------------------------------------15b17r15-17--------------------|
|---------------------------------------------------------------------------|
|---------------------------------------------------------------------------|
|---------------------------------------------------------------------------|


|--------------18b20-18b20-18b20r18-15----15--15-15-15-15-15--24-24-24/22p20|
|-16----16h17--------------------------18-----16-16-16-16-16----------------|
|----17---------------------------------------------------------------------|
|---------------------------------------------------------------------------|
|---------------------------------------------------------------------------|
|---------------------------------------------------------------------------|


|-20-20-18-----------------------|
|----------20-18-------18-20-18~-|
|----------------20-17-----------|
|--------------------------------|
|--------------------------------|
|--------------------------------|
The End 
please rate this tab ^_^
tab by:Caleb Stratos