Carlos Santana - Hoy Es Adios Chords & Tabs

 

Hoy Es Adios Chords & Tabs

Carlos Santana Chords & Tabs

Version: 1 Type: Tab 0 ratings
1 star 2 stars 3 stars 4 stars 5 stars
comments

Hoy Es Adios Tab

|--0------------------------------------------------------|
|--1------------------------------------------------------|
|--2------------------------------------------------------|
|--2------0--2--3--0h2----------------------2-------------|
|--0----------------------3/5--2-3-------3-------2--3/5--5|
|-------------------------------------5-------------------|

|----------0-----------------------------------------------|
|----------1--------------------------3---3-5-6-5-3---3-5--|
|----------2-----------------2--4--5----5-----------5------|
|----0-2---2---2--3--2--0----------------------------------|
|--3-------0---------------3-------------------------------|
|----------------------------------------------------------|
[ Tab from: http://www.guitartabs.cc/tabs/c/carlos_santana/hoy_es_adios_tab.html ]
|--------------------------------------------------------------10--|
|-5h6p5--------------------------------------------------12-13-----|
|----------9--10--12--10-12--10--10-9-7-9----10--12--14------------|
|------------------------------------------------------------------|
|------------------------------------------------------------------|
|------------------------------------------------------------------|

|-----------------------------------------------------5----7-8-10--|
|---5----6--5--2/3------------3-----3-5---3-5-6-5-3-1--------------|
|-------------------5--2--4-5-----5--------------------------------|
|------------------------------------------------------------------|
|------------------------------------------------------------------|
|------------------------------------------------------------------|
Comments