Carlos Santana - Europa Chords & Tabs

 

Europa Chords & Tabs

Carlos Santana Chords & Tabs

Version: 1 Type: Bass Tab 0 ratings
1 star 2 stars 3 stars 4 stars 5 stars
comments

Europa Bass Tab

   
Song: Europa (earths cry heavens smile)
Band: Carlos Santana and Tom Coster
Tabbed: Daniel T (dt_69er@hotmail.com)
Tuning: E A D G
Moderatlty slow 1=76

G[[-------------|---------|---------3-2-|-1---1----1-------]
D[[-------------|---------|-1--1-1------|-------1----------]
A[[-------------|-1---1-1-|-------------|------------------]
E[[-1----1-1--1-|---------|-------------|------------------]

G[-0----0--0-----|-----------|--------------|------------]]
D[-------------0-|-----------|--------------|------------]]
A[---------------|-----------|-3---3--------|--3---------]]
E[---------------|--3---3--3-|--------3---3-|------------]]
  repeat

G[----------0----|-----|---------------|-------------------]
D[---------------|-----|---------------|-------------------]
A[-3--3----------|-3---|---------------|-1-----1--1--------]
E[-------3-----3-|-----|--1---1--1---1-|-------------------]

G[-----------3--2-|-1----1----1-|-0---0-0---|--------------]
D[-1----1--1------|--------1----|---------0-|--------------]
A[----------------|-------------|-----------|--------------]
E[----------------|-------------|-----------|-3-----3--3---]

G[------------|--------------------------------------------]
D[------------|--------------------------------------------]
A[-3---3------|--3-----------------------------------------]
E[-------3--3-|--------------------------------------------]

G[[-------------|----------|--------3-3-|-1---1----1-------]
D[[-------------|----------|-1--1-1-----|-------1----------]
A[[-------------|-1---1--1-|------------|------------------]
E[[-1---1--1--1-|----------|------------|------------------]
[ Tab from: http://www.guitartabs.cc/tabs/c/carlos_santana/europa_btab.html ]
G[-0---0-0----|--------|-----------|----------------------]]
D[----------0-|--------|-----------|----------------------]]
A[------------|--------|-3--3------|--3-------------------]]
E[------------|-3--3-3-|------3--3-|----------------------]]
  repeat

G[---------0---|-----|------------|------------------------]
D[-------------|-----|------------|------------------------]
A[-3---3-------|--3--|------------|-1----1--1--------------]
E[-------3----3|-----|-1--1-1---1-|------------------------]

G[----------3--2-|-1---1----1-|-0---0-0---|----------------]
D[-1---1--1------|-------1----|---------0-|----------------]
A[---------------|------------|-----------|----------------]
E[---------------|------------|-----------|-3--3-3-3-3-3---]

Solo section
G[[---------------------------|----------------------------]
D[[-------------------------1-|--3---1-3-1-3-1-3-----------]
A[[-3---1--3--1--3--1--3--3---|---------------------1------]
E[[---------------------------|------------------3---------]

G[---------------------------|-----------------------------]
D[-------------------------1-|--3---1-3-1-3-1-3------------]
A[-3---1--3--1--3--1--3--3---|---------------------1-------]
E[---------------------------|------------------3----------]

G[---------------------------|----------------------------]]
D[-------------------------1-|--3---1-3-1-3-1-3-----------]]
A[-3---1--3--1--3--1--3--3---|---------------------1------]]
E[---------------------------|------------------3---------]]
  repeat

G[-----------------------|---------------------------------]
D[-3---1-3-1-3-1-3-------|---------------------------------]
A[------------------1----|---3-----------------------------]
E[-----------------------|---------------------------------]

Its really easy so have fun with it and play it smoothly 
I think this tab is perfect butsept for the repeats the two thingo's ]] mean double 
bar line the ones without the double bar line just mean no repeat..
Any suggestions and corrections e-mail (dt_69er@hotmail)
                    Thanx
                       Daniel
Comments