Carlos Santana - Dirty Dancin Chords & Tabs

 

Dirty Dancin Chords & Tabs

Carlos Santana Chords & Tabs

Version: 1 Type: Tab 0 ratings
1 star 2 stars 3 stars 4 stars 5 stars
comments

Dirty Dancin Tab

   
Artist: Product G&B & C.Santana
Song: Dirty dancin
Submit: A.Arjomandi

Intro
[ Tab from: http://www.guitartabs.cc/tabs/c/carlos_santana/dirty_dancin_tab.html ]
 (0:17)     (0:19)           (0:20)
E-12b------10-8-10-----------------15--13-12---------------
B------------------8---------12-15-------------------------
G--------------------------------------------------------
D--------------------------------------------------------
A--------------------------------------------------------
E--------------------------------------------------------

  (0:22)                      (0:25)  
E----------12----------------------------------------------
B----12-13----15-13-15--------1312---------------------------
G-14-------------------------------15------------------------
D--------------------------------------------------------
A--------------------------------------------------------
E--------------------------------------------------------
Comments