Carlos Santana - Chill Out Chords & Tabs

 

Carlos Santana Chords & Tabs

Version: 1 Type: Tab 0 ratings
1 star 2 stars 3 stars 4 stars 5 stars
comments

Chill Out Tab

   

Santana 
Chill Out 
  
[ Tab from: http://www.guitartabs.cc/tabs/c/carlos_santana/chill_out_tab.html ]
(0:10) 
e-------------10--11p10---10b12r10hb12r10--11p10b----------------| 
B-----------13----------13---------------------------------------| 
G-10h12--12------------------------------------------------------| 
D----------------------------------------------------------------| 
A----------------------------------------------------------------| 
E----------------------------------------------------------------| 
 
 
 
e--------8--------8----------------------------------------------| 
B--11b13--11p8------11-8-----------------------------------------| 
G-----------------------10b12-10p8---8--10p8h10p8h10b12r10-------| 
D---------------------------------10-----------------------------| 
A----------------------------------------------------------------| 
E----------------------------------------------------------------| 
 
 
e----11-13-11--11h13p11--13p11h13p11---13p11h13p11--13p11h13p11--| 
B-13-------------------------------------------------------------| 
G----------------------------------------------------------------| 
D----------------------------------------------------------------| 
A----------------------------------------------------------------| 
E----------------------------------------------------------------| 
 
 
e-13--13b15---13b15--13b15---13b15r13--11-13-13b15-13p11---------| 
B----------------------------------------------------------------| 
G----------------------------------------------------------------| 
D----------------------------------------------------------------| 
A----------------------------------------------------------------| 
E----------------------------------------------------------------| 
 
(0:29) 
e----------------------------------------------------------------| 
B-------6h8-6--------6-8vharm(20)--------------------------------| 
G-5-7-8--------7--8-----------<5>--------------------------------| 
D----------------------------------------------------------------| 
A----------------------------------------------------------------| 
E----------------------------------------------------------------| 
 
                            (0:39) 
e----------------------------------------------------8-----------| 
B-------6h8--6------6-------------7/8--6------6/8---8------------| 
G-7--8---------8--8---7------5--7---------7-8--------8-----------| 
D----------------------------------------------------8-----------| 
A----------------------------------------------------------------| 
E----------------------------------------------------------------| 
 
Enter vocal 
 
RIFF ONE 
(2:09) 
(2:14) 
(2:18) 
(2:23) 
(2:29) 
(2:33) 
 
 
e----------------------------------------------------------------| 
B----------------------------------------------------------------| 
G-8p7--5--5------5---------8p7-5---5----5------------------------| 
D--------8---5-8-----------------8---5-8-------------------------| 
A----------------------------------------------------------------| 
E----------------------------------------------------------------| 
 
(2:27)                    (2:29)               (2:31)   
e-------8--------------------------------------------------------| 
B----------------------------------------------------------------| 
G-10b12---10-8-------------8p7--5--5------5------8p7-5---5----5--| 
D-------------10--875-----------8---5-8--------------8---5-8-----| 
A----------------------------------------------------------------| 
E----------------------------------------------------------------| 
 
(2:36)             Continue Riff One up to (2:48) 
e-----------------|----------------------------------------------| 
B-----------6b8r6-|----------------------------------------------| 
G-8p7-5---5-------|----------------------------------------------| 
D-------8---------|----------------------------------------------| 
A-----------------|----------------------------------------------| 
E-----------------|----------------------------------------------| 
 
SOLO 
e---6h8-8-11-----------11h13trtrtrtrtrtrtr/13h15p13h1518p1518p15-| 
B--6----------------13-------------------------------------------| 
G----------------------------------------------------------------| 
D----------------------------------------------------------------| 
A----------------------------------------------------------------| 
E----------------------------------------------------------------| 
 
(2:53) 
e--18b20-18b20-18b20-18b20-18b20r15-x--15---14-14---15-----------| 
B-----------------------------------x--16---15-15h16-------------| 
G-----------------------------------x----------------------------| 
D----------------------------------------------------------------| 
A----------------------------------------------------------------| 
E----------------------------------------------------------------| 
 
 
e----------------------------------------------------------------| 
B-15b16-15--13-15h16p15p13--15h16p15p13-16p15p13--16p13h16-------| 
G----------------------------------------------------------------| 
D----------------------------------------------------------------| 
A----------------------------------------------------------------| 
E----------------------------------------------------------------| 
 
 
e----------------------------------------------------------------| 
B-16b18-16b18pick,pick--16b18-16b18-16b18-16b18-16b18r16-16-13---| 
G----------------------------------------------------------------| 
D----------------------------------------------------------------| 
A----------------------------------------------------------------| 
E----------------------------------------------------------------| 
 
                                      (3:05)  
e----------------------------------------------------------------| 
B-13_____13-13______13--13_______13---16p15p13--13---------------| 
G--15ub17-----15ub17------15bub17-------------15---12-15-12------| 
D--------------------------------------------------------15b17r15| 
A----------------------------------------------------------------| 
E----------------------------------------------------------------| 
 
                             (3:07) 
e----------------------------------------------------------------| 
B----------------------------------------------------------------| 
G----------------------------------------------------------------| 
D-13--13--15b17r15-13h15p13--------------------------------------| 
A---15---------------------15------------------------------------| 
E----------------------------------------------------------------| 
 
 
e----------------------------------------------------------------| 
B-15h16p15p13---13-------13-------13-15-16/18--------------------| 
G-------------15---12-15-----12/15-------------------------------| 
D----------------------------------------------------------------| 
A----------------------------------------------------------------| 
E----------------------------------------------------------------| 
 
e-15h18p15h18p15h18--15h18p15trtr-18h20p18h20p18h20trmpick/22/23-| 
B----------------------------------------------------------------| 
G----------------------------------------------------------------| 
D----------------------------------------------------------------| 
A----------------------------------------------------------------| 
E----------------------------------------------------------------| 
 
e-23b25-23b25-23b25-23\------------------------------------------| 
B-------------------------(13?)(0)-------------------------------| 
G------------------------------(0)-------------------------------| 
D----------------------------------------------------------------| 
A----------------------------------------------------------------| 
E----------------------------------------------------------------| 
 
 
e----8---------8------------8--8-----------------------13-15-----| 
B-----8-8-11b13--8-8--11b13----8-8-11p8-------13-15-16-----------| 
G---------------------------------------10-12--------------------| 
D----------------------------------------------------------------| 
A----------------------------------------------------------------| 
E----------------------------------------------------------------| 
 
 
e-15__15__15---15__15__15---15__15__15-------15-16-15--15--------| 
B---18b20---------18b20-------18b20---18b20----------18---18-16--| 
G----------------------------------------------------------------| 
D----------------------------------------------------------------| 
A----------------------------------------------------------------| 
E----------------------------------------------------------------| 
 
(3:20)REPEAT RIFF ONE; 
 ends at (3:41) 
 
 
(3:35) 
e----------------------------------------------------------------| 
B-6b8------------------------------------------------------------| 
G------8-5-------------------------------------------------------| 
D----------------------------------------------------------------| 
A----------------------------------------------------------------| 
E----------------------------------------------------------------| 
 
(3:57) 
e-6h8-6-------------------11p8--8--6h8--8-6h8-6h8--11-13-11------| 
B--------8p6-----6-------8---------------------------------------| 
G-----------8-7-8--------8---------------------------------------| 
D----------------------------------------------------------------| 
A----------------------------------------------------------------| 
E----------------------------------------------------------------| 
 
 
 
e--8-6h8---8-6---------------------------------------------------| 
B--------------7/8--6--6-8-------------------------------6-------| 
G---------------------8---------5h7p5h7p5--5--7-5---7-8----------| 
D----------------------------------------------------------------| 
A----------------------------------------------------------------| 
E----------------------------------------------------------------| 
 
 
e----------------------------------------------------------------| 
B----------------------------6h8---------------------------------| 
G-5h7p5h7p5-5-7-5--------7-8-------------------------------------| 
D-----------------5--8-------------------------------------------| 
A----------------------------------------------------------------| 
E----------------------------------------------------------------| 
 
 
 
e----------------------------------------------------------------| 
B----------------------------------------------------------------| 
G-5h7p5h7p5--5-7-5-------5h7p5p7-5-7--5h7-8----------------------| 
D-----------------5--8-------------------------------------------| 
A----------------------------------------------------------------| 
E----------------------------------------------------------------| 
 
 
 
e----------------------------------------------------------------| 
B--------------------6--6h8-6------------------------------------| 
G-5h7p5p7-5-7--5h7-8---8-----8--5--------------------------------| 
D----------------------------------------------------------------| 
A----------------------------------------------------------------| 
E----------------------------------------------------------------| 
etc to end. 
 
I did this tab with the help of my CD, so I put the seconds when
the solos are played for make easier to play it.Comments, write
to this mail: jose_cbx@hotmail 
 
 
Comments