Carlos Santana - Black Magic Woman Chords & Tabs

 

Black Magic Woman Chords & Tabs

Carlos Santana Chords & Tabs

Version: 4 Type: Tab 0 ratings
1 star 2 stars 3 stars 4 stars 5 stars
comments

Black Magic Woman Tab

   
this is a kool song when youve got a good effects peddle
a sweet song




Intro Lead:

Step 1:

E--------------------------|
B-6-8-6---3-5-3-3----------|
G--------------------------|
D--------------------------|
A--------------------------|
E--------------------------|
	

Step 2:

E-----------------------------|
B-(slide)10-8-6-5-5-6-8-6-5-3-|
G-----------------------------|
D-----------------------------|
A-----------------------------|
E-----------------------------|

Play this twice...

	


First Lead Part:


Step 1:

E--------------------------|
B-15-13-15----15-----------|
G----------14--------------|
D--------------------------|
A--------------------------|
E--------------------------|

	

Step 2:

E--------------------------|
B-15-15-13-----------------|
G----------14-15-14-12-----|
D--------------------------|
A--------------------------|
E--------------------------|

	

Step 3:

E----------12-13-12-13-12------|
B-------13----------------13-15|
G-12-14------------------------|
D------------------------------|
A------------------------------|
E------------------------------|

	

Step 4:

E--------------------------|
B-15-15-13-----------------|
G----------14-15-14-12-----|
D--------------------------|
A--------------------------|
E--------------------------|

	

Step 5:

E----------12-13-15-17-15---15-17-21-21|
B-------13---------------18------------|
G-12-14--------------------------------|
D--------------------------------------|
A--------------------------------------|
E--------------------------------------|

E----------------------------|
B-15-15-13-------------------|
G----------14-15-14-12-------|
D----------------------15-12-|
A----------------------------|
E----------------------------|

	


Second Lead Part:

Step 1:

E--------------------------|
B--------------------------|
G--------------------------|
D-12-10-12-10----10-12-----|
A-------------12-----------|
E--------------------------|

	

Step 2:
[ Tab from: http://www.guitartabs.cc/tabs/c/carlos_santana/black_magic_woman_tab_ver_4.html ]
E--------------------------|
B--------------------------|
G----10--------------------|
D-12----12-12-10-----------|
A----------------12-10-12--|
E--------------------------|

	

Step 3:

E--------------------------|
B--------------------------|
G----------10--------------|
D-12-12-12---12-10-12-10---|
A--------------------------|
E--------------------------|

E----------------------------|
B----------------------------|
G----------------------------|
D-12-10-10-10----------------|
A-------------12-12(bend)-10-|
E----------------------------|

	

Step 4:

E--------------------------|
B--------------------------|
G----------10--------------|
D-12-12-12---12-10-12-10---|
A--------------------------|
E--------------------------|

E--------------------------|
B--------------------------|
G--------------------------|
D-----------8--------------|
A-8-10-8-10---10-8---------|
E------------------10-8-10-|

	


Rhythm:

Step 1:

E----1----1---1------------|
B----3----3---3------------|
G----2----2---2------------|
D-0----0-------------------|
A--------------------------|
E--------------------------|

Play this twice...
	

Step 2:

E-----0----0---0-----------|
B-----1----1---1-----------|
G-----2----2---2-----------|
D-----2----2---2-----------|
A-0------0-----------------|
E--------------------------|

Play this twice...
	

Step 3:

E----1----1---1------------|
B----3----3---3------------|
G----2----2---2------------|
D-0----0-------------------|
A--------------------------|
E--------------------------|

Play this twice...
	

Step 4:

E----3-----3----3----------|
B----3-----3----3----------|
G----3-----3----3----------|
D----5-----5----5----------|
A----5-----5----5----------|
E-3-----3------------------|

Play this twice...

	

Step 5:

E----1----1---1------------|
B----3----3---3------------|
G----2----2---2------------|
D-0----0-------------------|
A--------------------------|
E--------------------------|

E-----0----0---0-----------|
B-----2----2---2-----------|
G-----2----2---2-----------|
D-----2----2---2-----------|
A-0------0-----------------|
E--------------------------|

E----1----1---1---1--------|
B----3----3---3---3--------|
G----2----2---2---2--------|
D-0----0-------------------|
A--------------------------|
E--------------------------|
sweet song 
from kris
Comments