Carlos Santana - Black Magic Woman Chords & Tabs

 

Black Magic Woman Chords & Tabs

Carlos Santana Chords & Tabs

Version: 1 Type: Tab 1 rating
1 star 2 stars 3 stars 4 stars 5 stars
comments

Black Magic Woman Tab

Artist: Santana
Song: Black Magic Woman
Album: Abraxus

Guitar Notion Legend 

!!!!!!!!!!!!!!!!!!!!!!!!!!!!!!!!!!!!!!!!!!!!!!!!!!!!!!!!!!!!!!!!!!!!
!PLEASE READ BEFORE GOING AHEAD OR YOU WILL NOT BE ABLE TO READ TAB!
!!!!!!!!!!!!!!!!!!!!!!!!!!!!!!!!!!!!!!!!!!!!!!!!!!!!!!!!!!!!!!!!!!!!

HB= half-step bend = Strike the note and bend up 1/2 step 

WB= whole-step bend = Strike the note and bend up 1 step
 
(?)= bend and release = Strike the note and bend as indicated, then release back to the original note. Only the first note is struck.

H= hammer on = Strike the first (highest on the fretboard) note with one finger, the sound the higher note (on the same string) with another finger by fretting it without picking.

P= pull-off = Place both fingers on the notes to be sounded. Strike the first note and without picking, pull the finger off to sound the secound (highest on the fretboard) note.
  
/= slide = Strike note then slide to secound note . or if third note follows secound note then slide back by picking the secound or to go faster then just slide back to first note. (you got that)

P.S sorry if the spacing between the notes are spaced wrong i don't know how to space them correctly so bare with me.
!!Also if you think this tab looks diificult then just read over it carefully and master each section and then put it all together!!
    
Intro Solo
w/dist 

E----------------------------------------------------------------
B-----8p6------------6h9p6---8-----------------------------------
G-----------7/9/7--------------7/9/7---14--12--10/9--12-10-9/7---Rpt2x then..
D----------------------------------------------------------------
A----------------------------------------------------------------           
E----------------------------------------------------------------

E---------10--10--------------------------------
B-------10|------13-13WB-(13)-10-13WB-(13)p10---
G-----10--|-------------------------------------
D---10----|-------------------------------------
A-12------|-------------------------------------
E---------|-------------------------------------
pm........|

E-------10----------------------------------------12/13--
B-13WB~~--13-10------------------------------10-13-------
G--------------12-12WB-(12)/10/9-(9)---(9)/10------------
D--------------------------------------------------------
A--------------------------------------------------------
E--------------------------------------------------------

E-12-13p12p10----------------------------10---------------------
B-------------13WB-(13WB)-(13)p10---13WB----13p10---------------
G------------------------------------------------12WB-(12)p10---
D---------------------------------------------------------------
A---------------------------------------------------------------
E---------------------------------------------------------------

E-----10-12-13WB~~-15WB-(15)p13---13----18WB---
B---11-------------------------15--------------
G-12-------------------------------------------
D----------------------------------------------
A----------------------------------------------
E----------------------------------------------

E-10------------------------------------------------------------10---|
B---------------------10----------------------------------------10---|
G-----12Wb-(12)p10-12----12-10h12p10----------------------------10---|
D-----------------------------------12-10-12-10-----------------10---|
A-----------------------------------------------12-11-10/8-10-8-12---|
E---------------------------------------------------------------10---|

ORGAN SOLO

VERSE
w/clean tone

E-10------10--10---10-10-10----10---10-----------------------------------
B-10------10--10---10-10-10----10---10----8---8--8-8-8--8---8---8--8--8--
G-10------10--10---10-10-10----10---10----5---5--5-5-5--5---5---5--5--5--
D-10------10--10---10-10-10----10---10----5---5--5-5-5--5---5---5--5--5--
A---------12------------------------------7---7--7-7-7--7---7---7--7--7--
E---------10------------------------------5---5--5-5-5--5---5---5--5--5--


E------10--10-----10------------------------------------------
B------10--10-----10--------13--12--10---3--------3--3--3--3--
G------10--10-----10--------10--10--10---3--3h5p3-3--3--3--3--
D------10--10-----10--------10--10--10---3--------------------
A-12----------------------------------------------------------
E-10--------------------10------------------------------------

E-----------------------10--10--10--10-------------------------10--10----10--
B-6--6--5--5---3--------10--10--10--10-------8--8--8--8--------10--10-10-10--
G-3--3--3--3---3--------10--10--10--10-------5--5--5--5--------10--10-10-10--
D-3--3--3--3---3--------10--10--10--10-------5--5--5--5---------------10-----
A-------------------12-------------------7---7--7--7--7----12---------12-----
E-------------------10-------------------5---5--5--5--5----10----------------

[ Tab from: http://www.guitartabs.cc/tabs/c/carlos_santana/black_magic_woman_tab.html ]
E-----10--10--10----------------------------------------------------
B-----10--10--10--9/10---10------8---8--8----8--8--8---8--8--8---8--
G-----10--10--10--9/10---10--10--5---5--5----5--5--5---5--5--5---5--
D-----------------9/10---10--10--5---5--5----5--5--5---5--5--5---5--
A----------------------------12--7---7--7----7--7--7---7--7--7---7--
E-10-----------------------------5---5--5----5--5--5---5--5--5---5--

E-----10-10-10-10-10-10------------------------------------------------------
B-----10-10-10-10-10-10------13-12--10---10----3---------3-3-3-3-3--6-5-3--3-
G-----10-10-10-10-10-10------10-10--10---10----3--3h5p3--3-3-3-3-3--3-3-3--3-
D-----10-10-10-10-10-10------10-10--10---10----3--------------------3-3-3--3-
A-12-------------------------------------------------------------------------
E-10---------------------10--------------------------------------------------

                                                        
E-----10--10--10--10----------------10-10-10-10-10-10-10---|
B-----10--10--10--10---8--8--8--8---10-10-10-10-10-10-10---|
G-----10--10--10--10---5--5--5--5---10-10-10-10-10-10-10---|
D-----10--10--10--10---5--5--5--5--------------------------|
A----------------------7--7--7--7--------------------------|
E-10-------------------5--5--5--5--------------------------|

Guitar Solo
w/dist

E-----10-10----------------------------13p12p10------------------------------
B-13Wb------13Wb-(13WB)-13WB-(13)p10------------13Wb-(13)p10-----------------
G-------------------------------------------------------------12WB-(12)/10/9-
D----------------------------------------------------------------------------
A----------------------------------------------------------------------------
E----------------------------------------------------------------------------

E----------12-13-13p12p10--------13WB---15WB-(15)p13-15WB-(15)p13----18WB--
B-----10-13---------------13WB---------------------------------------------
G-9/10---------------------------------------------------------------------
D--------------------------------------------------------------------------
A--------------------------------------------------------------------------
E--------------------------------------------------------------------------

E-12h13p12p10-12h13p12p10--------10--------------------------
B--------------------------13WB----13p10----------------10---
G----------------------------------------12Wb-(12)p10---10---
D-----------------------------------------------------12-----
A------------------------------------------------------------
E------------------------------------------------------------

E-----------------------------------------------------------------
B----10-13-10------------------13WB---15WB---13WB-----------------
G-------------12WB-(12)p10--------------------------12WB-(12WB)---
D-12-----------------------12-------------------------------------
A-----------------------------------------------------------------
E-----------------------------------------------------------------

E------10--------------------------------------10----------------------10---
B-13WB---13-10------------------------10-13WB--13WB-(13)-13WB-(13)p10--13WB-
G--------------12-12WB-(12)p10/9----10--------------------------------------
D---------------------------------------------------------------------------
A---------------------------------------------------------------------------
E---------------------------------------------------------------------------

E-------------10-12-13WB----15WB----18WB----20WB-20WB--------------
B----------11------------------------------------------------------
G--------12--------------------------------------------12WB-12WB---
D-10-10------------------------------------------------------------
A------------------------------------------------------------------
E------------------------------------------------------------------


                               |for this part i like to tap or pick ur choice
                               |T                                      
E---10-------10-------10-13p10-|13p10h13p10-T------------------------------
B-13---10-13----10h13----------|------------13p10h13p10-T------------------
G------------------------------|------------------------12p10h12p10-T------
D------------------------------|------------------------------------12-10--
A------------------------------|-------------------------------------------
E------------------------------|-------------------------------------------

                     |VERSE w/clean tone
E--------------------|-----------------------10------------------------------
B--------------------|-----------10p8--------10------------10-10-10-13-12-10-
G---------------9/10-|------9/10-----10/9----10--10h12p10--10-10-10-10-10-10-
D----------10h12-----|----10-----------------10------------10-10-10-10-10-10-
A-10h11h12-----------|--12-------------------12------------------------------
E--------------------|-----------------------10------------------------------

E---------------------------------------------------------------------------
B-3--------3-3-3-3-3-6-5-3--3------10-10-10-10------8-8-8-8-----10-10-10-10-
G-3--3h5p3-3-3-3-3-3-3-3-3--3------10-10-10-10------5-5-5-5-----10-10-10-10-
D-3------------------3-3-3--3------10-10-10-10------5-5-5-5-----10-10-10-10-
A-------------------------------12---------------7-----------12-------------
E-------------------------------10---------------5-----------10-------------

OUTRO
E----------------------------------
B-8p6-----------6h8p6---8----------
G-------7/9/7------------7/9/7-----Repeat and fade
D----------------------------------
A----------------------------------
E----------------------------------
-END
Comments