Carlos Santana - Black Magic Woman Live Chords & Tabs

 

Black Magic Woman Live Chords & Tabs

Carlos Santana Chords & Tabs

Version: 2 Type: Tab 0 ratings
1 star 2 stars 3 stars 4 stars 5 stars
comments

Black Magic Woman Live Tab

Este es el intro de la cancion black magic woman en vivo, básicamente para poder tocar
esta cancion tienes que practicar mucho la original y asi se te hace mas facil ya que
en la version en vivo solo le agrega algunos adornos al final de ciertas notas, es mi
primer tab por eso no estoy totalmente seguro de ciertas notas pero se acerca mucho a
lo que es. This is the intro from the sacred fire concert here in Mexico, basically what
i did to tab this one is just to extract the main notes of the original version and here
you can find some extra notes of course, it's my first tab so i'm not sure about some
notes.


(0:07)
--------------------------------------------------------------------------|
------------------------------------10—11p10------------------------------|
----9/10----7/8/7---10p12h10----10-----------12--9-10p9p7----7------------|
-----------------------------12---------------------------10--------------|
--------------------------------------------------------------------------|
--------------------------------------------------------------------------|
(0:22)
--------------------------------------------------------------------------|
---10-----------------------10—13p10-13p10----10--------------------------|
------12-10/9---12--10-9/7-----------------12-----------------------------|
--------------------------------------------------------------------------|
--------------------------------------------------------------------------|
--------------------------------------------------------------------------|
(0:29)
------------------------------------------------------------------------10-|
----10---------------------------------------------------------------10-10-|
-------12-10-9---10-9-10—10h12-12-12-12-10h12-12-12-12-10-9--------10---10-|
-----------------------------------------------------------------12--------|
---------------------------------------------------------------12----------|
---------------------------------------------------------------------------|
[ Tab from: http://www.guitartabs.cc/tabs/c/carlos_santana/black_magic_woman_live_tab_ver_2.html ]
(0:37)
---10-10-------------------10----10---------------------------------------|
---------13-10-13-13b14b15----13-----13p10----10--------------------------|
-------------------------------------------12----12-10—12p10(x3)--9-------|
--------------------------------------------------------------------------|
--------------------------------------------------------------------------|
--------------------------------------------------------------------------|

(0:45)
-------10-13-10----10----------10-12-13-15-10-12-13-10-12-13-10-13p12p10-10-|
-10-13----------13----13p12p10----------------------------------------------|
----------------------------------------------------------------------------|
----------------------------------------------------------------------------|
----------------------------------------------------------------------------|
----------------------------------------------------------------------------|

(0:50)
--10-13p12p10-13p12p10----10--------13-15b17-15b17-15p14p13----13-15-------|
-----------------------13----13--15-------------------------15-------------|
---------------------------------------------------------------------------|
---------------------------------------------------------------------------|
---------------------------------------------------------------------------|
---------------------------------------------------------------------------|

(0:54)       Esto va rapido y repitelo segun como lo escuches
--18b20--18—(13p10)------------------------------------------------10/1—10--|
--------------------(13p10)----------------------------------------10/1—10--|
----------------------------(12p10)--------------------------------10/1—10--|
------------------------------------(12p10)---------------------------------|
--------------------------------------------(12p10)-------------------------|
----------------------------------------------------------------------------|
             This goes really fast and repeat it as you wish


Bueno este fue solo el intro espero despues poder completarla.
Well this was just the intro in a future i will tab the rest.

alguna correcion: venistes@hotmail.com (Hector Reyes) Dill
Comments