Cardigans - Your New Cuckoo Chords & Tabs

 

Your New Cuckoo Chords & Tabs

Cardigans Chords & Tabs

Version: 2 Type: Bass Tab 0 ratings
1 star 2 stars 3 stars 4 stars 5 stars
comments

Your New Cuckoo Bass Tab

"Your New Cuckoo"
as recorded by The Cardigans
from the album "First Band On The Moon"
Music by Peter Svensson
Lyrics by Peter Svensson and Nina Persson

Transcribed by Mark Hirstwood (hirstwoodm@tlss.scbe.on.ca) March 28, 1997
Comments: "Your New Cuckoo", the album opener is one of my favourites, and
is supported by a strong bass line.  Although I have tried to transcribe it
as accurately as possible, this version may not mirror the original, note for
note.

Bass
4/4 time

intro
-^----^----^---^---^------^----^----^-----^----^-----^------------
 -7----7----7---7----7-----7----7----7-----7----7----7------------
--------------------------------------------------------------6---
------------------------------------------------------------------
[ Tab from: http://www.guitartabs.cc/tabs/c/cardigans/your_new_cuckoo_btab_ver_2.html ]
figure#1
----------------------------------------------------------
----------------------------------------------------------
-7--7--5-7-5------------------5-5----5---------6-7-7-8-9--
---------------5-5--0-3--5---------5----5-6-7-------------


-------------------------------------------------------4--5---------4-2------
----------------------------------------------------7-------4-4---4-----6-4-6
-7-7--5-7-5----------------5-5----5-4-3--3-------7--------------2------------
-------------5-5--0-3--5--------5---------3--5-5-----------------------------



figure#2
----------------------------------------
----------------------------------------
-4---4--------------4---4--------------
---4---4-5-4-5--4-----4---4-5-4-5-4-(0)-


figure #3
------------------------------------------------8-6-8-6-8-
-----4------4--------4-------4----------------------------
----------------------------------------------------------
-2------2-------2--------2--------7--7--------------------


-----------------------------------------
--------------6----------5---------------
-----------------------------------------
-5---------------------------4-5-4-5-4-0-

Comments