Cardigans - Rise And Shine Chords & Tabs

 

Rise And Shine Chords & Tabs

Cardigans Chords & Tabs

Version: 1 Type: Bass Tab 0 ratings
1 star 2 stars 3 stars 4 stars 5 stars
comments

Rise And Shine Bass Tab

   
----------------------------------------------------------------------------
			     RISE AND SHINE - Cardigans
----------------------------------------------------------------------------

Tabbed By : Stephen Healy
e-mail: steeeeeve13@hotmail.com

Tuning: Standard EADG

Intro / post-chorus riff
G|-------------------------------------------------------------------------|
D|--------7-777-777--------------------------------------------------------|
A|-7-7-77-----------9-9-99-7-9-9-9999--------------------------------------|
E|-------------------------------------------------------------------------|

Verse                                                  
G|-------------------------------------------------------------------------|
D|-6-666-6-6-66666---------------------------------7-777-7-7-77777---------|
A|-----------------7-777-7-7-77777-9-999-9-9-99999-------------------------|
E|-------------------------------------------------------------------------|

G|-------------------------------------------------------------------------|
D|-6-666-6-6-66666---------------------------------7-777-7-7-77777-999-9999|
A|-----------------7-777-7-7-77777-9-999-9-9-99999-------------------------|
E|-------------------------------------------------------------------------|
[ Tab from: http://www.guitartabs.cc/tabs/c/cardigans/rise_and_shine_btab.html ]
Bridge
G|-------------------------------------------------------------------------|
D|---------6-666-666---------7-777-777---------6-666-666---------7-77-9-999|
A|-7-7-777-----------9-9-999-----------7-7-777-----------9-9-999-----------|
E|-------------------------------------------------------------------------|

G|-------------------------------------------------------------------------|
D|---------------------------9-999-999---------------------------9-999-999-|
A|-7-7-777-----------9-9-999-----------7-7-777-----------9-9-999-----------|
E|---------5-555-555---------------------------5-555-555-------------------|

G|-------------------------------------------------------------------------|
D|---------------------------9-999-999---------7-777-777---------9-999-999-|
A|-7-7-777-----------9-9-999-----------7-7-777-----------9-9-999-----------|
E|---------5-555-555-------------------------------------------------------|

Outro
G|------------------------------------------------------------------------|
D|------------------------------------------------------------------------|
A|-7-7-7-7/12-12-12-12\7-7-7-7/12-12-12-12\7-7-5-5-4-4-2-2---------2-2-2h7|
E|---------------------------------------------------------2-2-2-2--------|



| /  slide up
| \  slide down
| h  hammer-on
| p  pull-off
| ~  vibrato
| +  harmonic
| x  Mute note
============================================================================
Comments