Cardigans - I Need Some Fine Wine And You You Need To Be Nicer Chords & Tabs

 

I Need Some Fine Wine And You You Need To Be Nicer Chords & Tabs

Cardigans Chords & Tabs

Version: 1 Type: Tab

I Need Some Fine Wine And You You Need To Be Nicer Tab

Intro:

 e-----------------------------|
 B----6-8-6-8-----6-4-6-4------|
 G-----------------------------|
 D-----------------------------|
 A-----------------------------|
 E-----------------------------|

Vers part 1:
[ Tab from: http://www.guitartabs.cc/tabs/c/cardigans/i_need_some_fine_wine_and_you_you_need_to_be_nicer_tab.html ]
 e-------------------------------------------------------------------|
 B-------------------------------------------------------------------|
 G-------------------------------------------------------------------|  
 D--5-5-5-5-5-5-5-5-5-5-5-5-5-5-5-5----------------------------------|
 A--3-3-3-3-3-3-3-3-1-1-1-1-1-1-1-1-6-6-6-6-6-6-6-6-3-3-3-3-3-3-3-3--|
 E----------------------------------4-4-4-4-3-3-3-3-1-1-1-1-1-1-1-1--|

Vers part 2 and Chorus:

 e---------------------------------------|
 B---------------------------------------|
 G---------------------------------------|  
 D------------------8-8-8-8-3-3-3-3------|
 A--3-3-3-3-6-6-6-6-6-6-6-6-1-1-1-1------|
 E--1-1-1-1-4-4-4-4----------------------|

Listen to the song for rythm and so on.
GL/HF!

Written by Surfboy Sealander and Alcohlic Pete