Cardigans - I Need Some Fine Wine And You Need To Be Nicer Chords & Tabs

 

I Need Some Fine Wine And You Need To Be Nicer Chords & Tabs

Cardigans Chords & Tabs

Version: 1 Type: Bass Tab

I Need Some Fine Wine And You Need To Be Nicer Bass Tab

enjoy this song!!

intro: while guitarīs playing

G||--------------------|--------------------|--------------------|
D||--------------------|--------------------|--------------------|
A||--------------------|--------------------|--------------------|
E||--3--1--------------|--1--1--------------|--1--1--------------|


                                                  
--------------------|
--------------------|
--------------------|
--1--1--------------|x8

     
                                                    
G||--------------------------|--------------------------|
D||--------------------------|--------------------------|
A||--3--3--3--3--3--3--3--3--|--1--1--1--1--1--1--1--1--|
E||--------------------------|--------------------------|

[ Tab from: http://www.guitartabs.cc/tabs/c/cardigans/i_need_some_fine_wine_and_you_need_to_be_nicer_btab.html ]
                                                  
--------------------------|----------------------||
--------------------------|----------------------||
--------------------------|----------------------||
--4--4--4--4--3--3--3--3--|--1--1--1--1--1--1----|| x4


chorus:
                                                     
G||----------------------|--------------------------|
D||----------------------|--------------------------|
A||----------------------|--------------------------|
E||--1----1----1----1----|--4--4--4--4--4--4--4--4--|

                                                       
--------------------------|--------------------------|
--------------------------|--------------------------|
--6--6--6--6--6--6--6--6--|--1--1--1--1--1--1--1--1--|
--------------------------|--------------------------|x 4