Cardigans - Erase Rewind Chords & Tabs

 

Erase Rewind Chords & Tabs

Cardigans Chords & Tabs

Version: 1 Type: Tab 0 ratings
1 star 2 stars 3 stars 4 stars 5 stars
comments

Erase Rewind Tab

   
ERASE/REWIND
The Cardigans

from the album “Gran Turismo” (1998)


transcribed by Steve Garner (s_garner@hotmail.com)



IMPORTANT!! READ THIS FIRST!!
   There are a few tabs for this song already in existence, but 
unfortunately most of them are inaccurate. I’ve noticed that several
of them make the mistake of tabbing out what is actually a keyboard, 
which is played in a higher octave than the guitar part. The guitar 
plays basically the same riffs but in a lower octave, which, combined
with the keyboard, gives the song its overall sound. I’ve worked out 
what I believe to be the most complete and accurate tab for this song
that exists to date. I’ve incorporated both the guitar and keyboard 
parts for those of you who want to try playing it using two guitars. 
   The lines of tab for “Guitar I” are the normal guitar parts, played
on an acoustic. The tab for “Guitar II” is a guitar arrangement of 
what the keyboard plays - notice how during the main riff it is 
basically doubling the guitar riff but at a higher octave. And finally
the chords listed below each line of tab represent the overall 
tonality of the song created by the synthesizer in the background.


** GUITAR I = Acoustic Guitar **
** GUITAR II = Keyboard arranged for guitar **



INTRO: (0:00)

 Guitar II:
|-------------------------|----------10-------------|
|--------3----------------|-------------12----------|
|----------4--------------|--9-11-12----------------|
|--2-4-5------------------|-------------------------|
|-------------------------|-------------------------|
|-------------------------|-------------------------|
  Em    Em7     D    A      Em     Em7     D    A



MAIN RIFF: (0:09)
[ Tab from: http://www.guitartabs.cc/tabs/c/cardigans/erase_rewind_tab.html ]
 Guitar I:
|--------------------------------------------------------------------------|
|------------------------------------------------------------------------*-|
|--------------------------------------------------------------------------|
|---------------0----------------------------0-----------------------------|
|------------------2--0--2/4--0-----------------2--0--2--0--2/4--0-------*-|
|--0---0--2--3----------------------0--2--3--------------------------------|
|                                                                          |
|Guitar II:                                                                |
|--------------------------------------------------------------------------|
|---------------3----------------------------3---------------------------*-|
|------------------4--2--4/6--2-----------------4--2--4--2--4/6--2---------|
|--2---2--4--5----------------------2--4--5--------------------------------|
|------------------------------------------------------------------------*-|
|--------------------------------------------------------------------------|
   Em      Em7      D     A         Em      Em7      D      A



BREAK AFTER MAIN RIFF: (0:28)

 Guitar I:
|--------------------------|
|--------------------------|
|--------------------------|
|--------0--------0----2---|
|----------------------2---|
|--2--3-----2--3-------0---|
|                          |
|Guitar II:                |
|--------------------------|
|--------3-----------------|
|--------------------------|
|--4--5--------------------|
|--------------------------|
|--------------------------|



VERSE: (0:32)

Guitar II:
|-------10----------9---------|
|----------12-------10------*-|
|--9-11-------------9---------|
|-----------------------------|
|---------------------------*-|
|-----------------------------|
  Em    Em7     D    A



BRIDGE: (1:08)

 Guitar I:
|-----------------------------------------------------------------|
|-----------------------------------------------------------------|
|---1--1-------2p0---0h2---0-h2---0h2p0-0h2----2p0----0h2-----0---|
|---2--2-----------2-----2------2------------4------4------0--0---|
|---2--2-----0------------------------------------------------X---|
|---0--0------------------------------------------------------3---|
   E		A                               D                G




SONG SETUP:

Intro (x1)

Main Riff (x2)
Break (x1)

Verse (x3)
Break (x1)

Verse (x3)
Break (x1)

Bridge (x1)

Main Riff (x2)
Break (x1)

Verse (x3)
Break (x1)

Verse (x3)
Break (x1)

Bridge (x1)

Main Riff (x5)

End on D
Comments