Cardigans - Been It Chords & Tabs

 

Been It Chords & Tabs

Cardigans Chords & Tabs

Version: 1 Type: Bass Tab 0 ratings
1 star 2 stars 3 stars 4 stars 5 stars
comments

Been It Bass Tab

"Been It"
as recorded by The Cardigans
from the album "First Band On The Moon"
Music by Peter Svensson
Lyrics by Peter Svensson and Nina Persson

Transcribed by Mark Hirstwood (hirstwoodm@tlss.scbe.on.ca) April 16, 1997
Comments: The Cardigan's hard rock influences are evident in this
song, basing it around a fairly heavy riff.

Bass
4/4 time

intro

-----------
-----------
-------7---
7--9-----9-
[ Tab from: http://www.guitartabs.cc/tabs/c/cardigans/been_it_btab.html ]
figure #1
---------------------------------------
-----------------7------5---7---5------
-7------5-----------7---------------7--
----7------5--------------------------- (repeat)


------------------
------------------
-4---4---4---3---2
------------------

figure #2 (verse)

--------------------------------------
--------------------------------------
7--------------------7----------------
--7--10--8--5--(0)----7--10--(0)--8-5- (repeat)


figure #3 (pre-chorus)

---------------------
------------6-6-7-7--
7-7--9-9-------------
---------------------

--------------------------------
-----------6-6--7-7---------7---
7-7--9-9---------------7-9----7-
--------------------------------


Comments