Carcass - Reek Of Putrefaction Chords & Tabs

 

Reek Of Putrefaction Chords & Tabs

Carcass Chords & Tabs

Version: 2 Type: Tab 0 ratings
1 star 2 stars 3 stars 4 stars 5 stars
comments

Reek Of Putrefaction Tab

   
Song: Reek of Putrefaction
Artist: Carcass
Album: Symphonies of sickness
Tuning:Eb
       Bb
       Gb
       Db
       Ab
       Db
Tabber:Shmeegle
Tab explained:

h=hammer on
p=pull off
/=slide up
\=slide down
w=whammy bar
T=tap
*7*=pinch harmonic
^=trill
b=bend
{7}=natural harmonic

INTRO:
Eb/-----------------|
Bb/-----------------|
Gb/-----------------| x2
Db/---2-2p0h2-2h6p0-|
Ab/---2-2p0h2-2h6p0-|
Db/---2-2p0h2-2h6p0-|

Eb/------------------------------------| Play this about 4 times while
Bb/------------------------------------| The lead guitar pulls up on
Gb/------------------------------------| the whammy bar on the b string
Db/-2~-5p2/9-8~~--2h5p4p3p2~-10-2-7-6~-| Not sure what fret though
Ab/-2~-5p2/9-8~~--2h5p4p3p2~-10-2-7-6~-| 
Db/-2~-5p2/9-8~~--2h5p4p3p2~-10-2-7-6~-| 

Eb/-----------------|
Bb/-----------------|
Gb/-----------------| x2
Db/---2-2p0h2-2h6p0-|
Ab/---2-2p0h2-2h6p0-|
Db/---2-2p0h2-2h6p0-|

VERSE:
Eb/--------------------------|
Bb/--------------------------|
Gb/--------------------------|
Db/--2-2-2-0-0-0-6-6-6-7-0-0-| x2
Ab/--2-2-2-0-0-0-6-6-6-7-0-0-|
Db/--2-2-2-0-0-0-6-6-6-7-0-0-|
     /////////////////////
"snorting latent effluvium..."

Eb/-------------------------|
Bb/-------------------------|
Gb/-------------------------|
Db/-2-2--2-2-2--2-0-0--0-7-0-| x4
Ab/-2-2--2-2-2--2-0-0--0-7-0-|
Db/-2-2--2-2-2--2-0-0--0-7-0-|

"wretched foul body odours.."

Eb/-------------------------|
Bb/-------------------------|
Gb/-------------------------|
Db/-6-6-6-0-0-0-8-8-8-0-0-0-| x4
Ab/-6-6-6-0-0-0-8-8-8-0-0-0-|
Db/-6-6-6-0-0-0-8-8-8-0-0-0-|
   //////////////////////////
"Volatile entrails fume and steam"

Eb/-------------------------------------------------|
Bb/-------------------------------------------------|
Gb/-------------------------------------------------|
Db/-3-2-2-2-2-3-2-2-2-2-5-2-2-2-2-3-2-2-2-2---------|
AB/-1-2-2-2-2-1-2-2-2-2-3-2-2-2-2-1-2-2-2-2---------|
Db/---2-2-2-2---2-2-2-2---2-2-2-2---2-2-2-2---------|
    Pm  .....     .....     .....     .....
"Maturating corpse, smell the decay and rot..."
[ Tab from: http://www.guitartabs.cc/tabs/c/carcass/reek_of_putrefaction_tab_ver_2.html ]
Chorus:

Eb/-----------------------------------|
Bb/-----------------------------------|
Gb/-----------------------------------|
Db/-2~-5-2-/9-8~-2-5p4p3-2~-10-2-7-6~-|x2
Ab/-2~-5-2-/9-8~-2-5p4p3-2~-10-2-7-6~-|
Db/-2~-5-2-/9-8~-2-5p4p3-2~-10-2-7-6~-|
   ///////////////////////////////////
"smell the rot..."

Solo:
(Cadaveric Resin)

Eb/-13p10-13-p12p10--------------------------13w-|
Bb/-----------------10-9~-9h10p9------11-8-7-----|
Gb/------------------------------8-7~---7--------|
Db/----------------------------------------------|
Ab/----------------------------------------------|
Db/----------------------------------------------|

Eb/----------13-p12p10-------------------------|
Bb/--------------------10-9~-9h10p9-----11-8-7-|
Gb/-8-7-8-7~------------------------8-7~---7---|
Db/--------------------------------------------|
Ab/--------------------------------------------|
Db/--------------------------------------------|

--------------------------------------------------------
********************************************************
--------------------------------------------------------

This is every riff in the song (i think). You should
be able to put 'em in the right order for the rest of the song.
Ive seen some fairly shabby tab on the net for this. didnt help 
me at all. It was in Eb tuning or something and involved power 
chords and no solo.. I find its easier (and more heavy sounding) 
when you drop the E6 a step. And i figured out the solo 
for all you fellow carcass freaks.
Enjoy
Shmeegle


(This is the solo in drop d, if your like me and couldnt be arsed
 Tuning your guitar down)

Eb/-12p9-12-p11p9-----------------------12w-|
Bb/--------------9-8~-8h9p8------10-7-6-----|
Gb/-------------------------7-6~---6--------|
Db/-----------------------------------------|
Ab/-----------------------------------------|
Db/-----------------------------------------|

Eb/----------12-p11p9-----------------------|
Bb/-------------------9-8~-8h9p8-----10-7-6-|
Gb/-7-6-7-6~--------------------7-6~---6----|
Db/-----------------------------------------|
Ab/-----------------------------------------|
Db/-----------------------------------------|

Shmeegle
Comments