Carcass - Polarised Chords & Tabs

 

Polarised Chords & Tabs

Carcass Chords & Tabs

Version: 1 Type: Tab 0 ratings
1 star 2 stars 3 stars 4 stars 5 stars
comments

Polarised Tab

join the death/black metal tab mailing list by emailing 
        

                                 Polarised tabs

Polarised
(Tune down 2.5 steps to B)

Thanks to John and Mike for their corrections.
 Intro and verse (really P.M.)
|-------------------|  The last time the final two notes are played as
|-------------------|  F#5 G5 (24xxxx, 35xxxx) (before the chorus, etc.)
|-------------------|
|-------------------|  The chords under the riff are E5    A#5 G5
|---10-9-7-6-7-9-10-|  (02xxxx, 68xxxx, 35xxxx).    (w__w  w   w)
|-0-----------------|

(John McCarron suggests 6|----0-3-2-1-0-1-2-3 for this bit, although
I disagree personally.  This riff is probably played as power chords).
[ Tab from: http://www.guitartabs.cc/tabs/c/carcass/polarised_tab.html ]
Chorus:
------------------]----]-----------------------------
------------------]----]-----------------------------
------------------]----]-----------------------------
-----9------------]-x3-]----------9------------------
---7------10------]----]--7---9---6------------------
-0------8-----8-7-]----]--5---7----------------------
(these first three notes
are played almost as a rake)

Interlude (let ring):
(The final Bm11 chord is definitely wrong... also, a fingering
like x3x030 might be easier for the Cadd2 arpeggio bit)

|-------------------|-------|-----------------|-------|
|----------8--------|-------|---------5-------|-------|
|-----11-----11-----|-------|-----7-----7-----|-------|
|---9----9------9---|---|---5---5-----5---|---|
|-7---------------7-|-------|-3-------------3-|-------|
|-------------------|-------|-----------------|-------|

|-----------------|-------|---------0-------|---------0-------|
|---------1-------|-------|-----------3-----|-----------3-----|
|-----4-----4-----|-------|-----2-------2---|-----2-------2---|
|---2---2-----2---|---|---4---4-------0-|---4---4-------4-|
|-0-------------0-|-------|-2---------------|-2---------------|
|-----------------|-------|-----------------|-----------------|
Comments