Carcass - Firm Hand Chords & Tabs

 

Firm Hand Chords & Tabs

Carcass Chords & Tabs

Version: 1 Type: Bass Tab 0 ratings
1 star 2 stars 3 stars 4 stars 5 stars
comments

Firm Hand Bass Tab

Standard Tuning

G|--------------------------------------------------------------|
D|--------------------------------------------------------------|
A|--------------------------------------------------------------| x4
E|--0-xxxx-0-xxxx-0-xxxx-0-2-4-0-xxxx-0-xxxx-0-xxxx-0-3h4p3-1-0-|
B|--------------------------------------------------------------|

           x2                        x1
G|----------------------|-----------------------------------|
D|----------------------|-----------------------------------|
A|----------------------|-----------------------------------| x3
E|-0-x-0-000-6-x-6-666--|--8-8-88-7-7-77-8-88-10-8-7-7-77---|
B|----------------------|-----------------------------------|

              x4
G|------------------------------------|
D|------------------------------------|
A|------------------------------------|
E|-0-0-000-1-1-111-4-4-444-1-1-111----|
B|------------------------------------|

Verse
G|----------------------------------------------------------|
D|----------------------------------------------------------|
A|----------------------------------------------------------|
E|-0--0---6-6---0-0---6-6--8-8--7-7--8-8-8h10p8-7-7h8p7--5--|
B|----------------------------------------------------------|

           x2                        x1
G|----------------------|-----------------------------------|
D|----------------------|-----------------------------------|
A|----------------------|-----------------------------------| x2
E|-0-x-0-000-6-x-6-666--|--8-8-88-7-7-77-8-88-10-8-7-7-77---|
B|----------------------|-----------------------------------|

                 x4
G|------------------------------------|
D|------------------------------------|
A|------------------------------------|
E|-0-0-000-1-1-111-4-4-444-1-1-111----|
B|------------------------------------|
[ Tab from: http://www.guitartabs.cc/tabs/c/carcass/firm_hand_btab.html ]
G|----------------------------------------------------------|
D|----------------------------------------------------------|
A|----------------------------------------------------------|
E|-0--0---6-6---0-0---6-6--8-8--7-7--8-8-8h10p8-7-7h8p7--5--|
B|----------------------------------------------------------|

G|--------------------------|
D|--------------------------|
A|--------------------------| x2
E|-12-12-10-10-8-8-8-7-7-7--|
B|--------------------------|

G|--------------------------------------------------------------|
D|--------------------------------------------------------------|
A|--------------------------------------------------------------| x2
E|--0-xxxx-0-xxxx-0-xxxx-0-2-4-0-xxxx-0-xxxx-0-xxxx-0-3h4p3-1-0-|
B|--------------------------------------------------------------|

bass over (guitar solo)

           x2                        x1
G|----------------------|-----------------------------------|
D|----------------------|-----------------------------------|
A|----------------------|-----------------------------------| x2
E|-0-x-0-000-6-x-6-666--|--8-8-88-7-7-77-8-88-10-8-7-7-77---|
B|----------------------|-----------------------------------|

                x4
G|------------------------------------|
D|------------------------------------|
A|------------------------------------|
E|-0-0-000-1-1-111-4-4-444-1-1-111----|
B|------------------------------------|

Slower verse

G|----------------------------------------------------------|
D|----------------------------------------------------------|
A|----------------------------------------------------------|
E|-0--0---6-6---0-0---6-6--8-8--7-7--8-8-8h10p8-7-7h8p7--5--|
B|----------------------------------------------------------|

G|--------------------------|
D|--------------------------|
A|--------------------------| x8
E|-12-12-10-10-8-8-8-7-7-7--|
B|--------------------------|

G|--------------------------------------------------------------|
D|--------------------------------------------------------------|
A|--------------------------------------------------------------| x2
E|--0-xxxx-0-xxxx-0-xxxx-0-2-4-0-xxxx-0-xxxx-0-xxxx-0-3h4p3-1-0-|
B|--------------------------------------------------------------|
Comments